  0
SECTION
  2
HEADER
  9
$ACADVER
  1
AC1009
  9
$INSBASE
 10
0.0
 20
0.0
 30
0.0
  9
$EXTMIN
 10
-7205.0
 20
-5014.181429
 30
0.0
  9
$EXTMAX
 10
-5765.0
 20
-2882.912006
 30
0.001526
  9
$LIMMIN
 10
-7325.0
 20
-5110.912006
  9
$LIMMAX
 10
-5645.0
 20
-2734.912006
  9
$ORTHOMODE
 70
     0
  9
$REGENMODE
 70
     1
  9
$FILLMODE
 70
     1
  9
$QTEXTMODE
 70
     0
  9
$MIRRTEXT
 70
     1
  9
$DRAGMODE
 70
     2
  9
$LTSCALE
 40
4.0
  9
$OSMODE
 70
     0
  9
$ATTMODE
 70
     1
  9
$TEXTSIZE
 40
0.2
  9
$TRACEWID
 40
0.05
  9
$TEXTSTYLE
  7
STANDARD
  9
$CLAYER
  8
0
  9
$CELTYPE
  6
CONTINUOUS
  9
$CECOLOR
 62
   256
  9
$DIMSCALE
 40
1.0
  9
$DIMASZ
 40
0.18
  9
$DIMEXO
 40
0.0625
  9
$DIMDLI
 40
0.38
  9
$DIMRND
 40
0.0
  9
$DIMDLE
 40
0.0
  9
$DIMEXE
 40
0.18
  9
$DIMTP
 40
0.0
  9
$DIMTM
 40
0.0
  9
$DIMTXT
 40
0.18
  9
$DIMCEN
 40
0.09
  9
$DIMTSZ
 40
0.0
  9
$DIMTOL
 70
     0
  9
$DIMLIM
 70
     0
  9
$DIMTIH
 70
     1
  9
$DIMTOH
 70
     1
  9
$DIMSE1
 70
     0
  9
$DIMSE2
 70
     0
  9
$DIMTAD
 70
     0
  9
$DIMZIN
 70
     0
  9
$DIMBLK
  1

  9
$DIMASO
 70
     1
  9
$DIMSHO
 70
     1
  9
$DIMPOST
  1

  9
$DIMAPOST
  1

  9
$DIMALT
 70
     0
  9
$DIMALTD
 70
     2
  9
$DIMALTF
 40
25.4
  9
$DIMLFAC
 40
1.0
  9
$DIMTOFL
 70
     0
  9
$DIMTVP
 40
0.0
  9
$DIMTIX
 70
     0
  9
$DIMSOXD
 70
     0
  9
$DIMSAH
 70
     0
  9
$DIMBLK1
  1

  9
$DIMBLK2
  1

  9
$DIMSTYLE
  2
STANDARD
  9
$DIMCLRD
 70
     0
  9
$DIMCLRE
 70
     0
  9
$DIMCLRT
 70
     0
  9
$DIMTFAC
 40
1.0
  9
$DIMGAP
 40
0.09
  9
$LUNITS
 70
     2
  9
$LUPREC
 70
     4
  9
$AXISMODE
 70
     0
  9
$AXISUNIT
 10
0.0
 20
0.0
  9
$SKETCHINC
 40
0.1
  9
$FILLETRAD
 40
0.0
  9
$AUNITS
 70
     0
  9
$AUPREC
 70
     0
  9
$MENU
  1
acad
  9
$ELEVATION
 40
0.0
  9
$PELEVATION
 40
0.0
  9
$THICKNESS
 40
0.0
  9
$LIMCHECK
 70
     0
  9
$BLIPMODE
 70
     1
  9
$CHAMFERA
 40
0.0
  9
$CHAMFERB
 40
0.0
  9
$SKPOLY
 70
     0
  9
$TDCREATE
 40
0.000000000
  9
$TDUPDATE
 40
0.000000000
  9
$TDINDWG
 40
0.0000000000
  9
$TDUSRTIMER
 40
0.0000000000
  9
$USRTIMER
 70
     1
  9
$ANGBASE
 50
0.0
  9
$ANGDIR
 70
     0
  9
$PDMODE
 70
     0
  9
$PDSIZE
 40
0.0
  9
$PLINEWID
 40
0.0
  9
$COORDS
 70
     0
  9
$SPLFRAME
 70
     0
  9
$SPLINETYPE
 70
     6
  9
$SPLINESEGS
 70
     8
  9
$ATTDIA
 70
     0
  9
$ATTREQ
 70
     1
  9
$HANDLING
 70
     1
  9
$HANDSEED
  5
C92
  9
$SURFTAB1
 70
     6
  9
$SURFTAB2
 70
     6
  9
$SURFTYPE
 70
     6
  9
$SURFU
 70
     6
  9
$SURFV
 70
     6
  9
$UCSNAME
  2

  9
$UCSORG
 10
0.0
 20
0.0
 30
0.0
  9
$UCSXDIR
 10
1.0
 20
0.0
 30
0.0
  9
$UCSYDIR
 10
0.0
 20
1.0
 30
0.0
  9
$PUCSNAME
  2

  9
$PUCSORG
 10
0.0
 20
0.0
 30
0.0
  9
$PUCSXDIR
 10
1.0
 20
0.0
 30
0.0
  9
$PUCSYDIR
 10
0.0
 20
1.0
 30
0.0
  9
$USERI1
 70
     0
  9
$USERI2
 70
     0
  9
$USERI3
 70
     0
  9
$USERI4
 70
     0
  9
$USERI5
 70
     0
  9
$USERR1
 40
0.0
  9
$USERR2
 40
0.0
  9
$USERR3
 40
0.0
  9
$USERR4
 40
0.0
  9
$USERR5
 40
0.0
  9
$WORLDVIEW
 70
     1
  9
$SHADEDGE
 70
     3
  9
$SHADEDIF
 70
    70
  9
$TILEMODE
 70
     1
  9
$MAXACTVP
 70
    16
  9
$PINSBASE
 10
0.0
 20
0.0
 30
0.0
  9
$PLIMCHECK
 70
     0
  9
$PEXTMIN
 10
1.000000E+20
 20
1.000000E+20
 30
1.000000E+20
  9
$PEXTMAX
 10
-1.000000E+20
 20
-1.000000E+20
 30
-1.000000E+20
  9
$PLIMMIN
 10
0.0
 20
0.0
  9
$PLIMMAX
 10
12.0
 20
9.0
  9
$UNITMODE
 70
     0
  9
$VISRETAIN
 70
     0
  9
$PLINEGEN
 70
     1
  9
$PSLTSCALE
 70
     0
  9
$TREEDEPTH
 70
  3020
  9
$DWGCODEPAGE
  3
dos932
  0
ENDSEC
  0
SECTION
  2
TABLES
  0
TABLE
  2
VPORT
 70
     1
  0
VPORT
  2
*ACTIVE
 70
     0
 10
0.0
 20
0.0
 11
1.0
 21
1.0
 12
-6485.0
 22
-3922.912006
 13
0.0
 23
0.0
 14
1000.0
 24
1000.0
 15
1000.0
 25
1000.0
 16
0.0
 26
0.0
 36
1.0
 17
0.0
 27
0.0
 37
0.0
 40
2376.0
 41
0.707071
 42
50.0
 43
0.0
 44
0.0
 50
0.0
 51
0.0
 71
     0
 72
   100
 73
     1
 74
     1
 75
     0
 76
     0
 77
     0
 78
     0
  0
ENDTAB
  0
TABLE
  2
LTYPE
 70
     5
  0
LTYPE
  2
CONTINUOUS
 70
    64
  3
Solid line
 72
    65
 73
     0
 40
0.0
  0
LTYPE
  2
HIDDEN
 70
    64
  3
__ __ __ __ __ __ __ __ __ __ __ __ __ __ __ __
 72
    65
 73
     5
 40
8.0
 49
1.0
 49
-2.0
 49
2.0
 49
-2.0
 49
1.0
  0
LTYPE
  2
DOT
 70
    64
  3
. . . . . . . . . . . . . . . . . . . . . . . .
 72
    65
 73
     3
 40
1.6
 49
0.4
 49
-0.8
 49
0.4
  0
LTYPE
  2
CENTER
 70
    64
  3
____ _ ____ _ ____ _ ____ _ ____ _ ____ _ ____ 
 72
    65
 73
     5
 40
12.0
 49
5.0
 49
-0.8
 49
0.4
 49
-0.8
 49
5.0
  0
LTYPE
  2
DIVIDE
 70
    64
  3
____ . . ____ . . ____ . . ____ . . ____ . . __
 72
    65
 73
     7
 40
13.2
 49
5.0
 49
-0.8
 49
0.4
 49
-0.8
 49
0.4
 49
-0.8
 49
5.0
  0
ENDTAB
  0
TABLE
  2
LAYER
 70
     7
  0
LAYER
  2
0
 70
     0
 62
     7
  6
CONTINUOUS
  0
LAYER
  2
1
 70
     0
 62
     7
  6
CONTINUOUS
  0
LAYER
  2
2
 70
     0
 62
     7
  6
CONTINUOUS
  0
LAYER
  2
3
 70
     0
 62
     7
  6
CONTINUOUS
  0
LAYER
  2
4
 70
     0
 62
     7
  6
CONTINUOUS
  0
LAYER
  2
23
 70
     0
 62
     1
  6
CONTINUOUS
  0
LAYER
  2
200
 70
     0
 62
     7
  6
CONTINUOUS
  0
ENDTAB
  0
TABLE
  2
STYLE
 70
     4
  0
STYLE
  2
STANDARD
 70
     0
 40
0.0
 41
1.0
 50
0.0
 71
     0
 42
0.0
  3
txt
  4

  0
STYLE
  2
DRACAD
 70
     0
 40
1000.0
 41
1.0
 50
0.0
 71
     0
 42
1000.0
  3
txt
  4
extfont
  0
STYLE
  2
TATEDRACAD
 70
     4
 40
1000.0
 41
1.0
 50
0.0
 71
     0
 42
1000.0
  3
txt
  4
extfont
  0
STYLE
  2
ＭＳ_Ｐゴシック
 70
     0
 40
1000.0
 41
1.0
 50
0.0
 71
     0
 42
1000.0
  3
txt
  4
extfont
  0
ENDTAB
  0
TABLE
  2
VIEW
 70
     0
  0
ENDTAB
  0
TABLE
  2
UCS
 70
     0
  0
ENDTAB
  0
TABLE
  2
APPID
 70
     1
  0
APPID
  2
ACAD
 70
     0
  0
ENDTAB
  0
TABLE
  2
DIMSTYLE
 70
     1
  0
DIMSTYLE
  2
STANDARD
 70
     0
  3

  4

  5

  6

  7

 40
1.0
 41
0.18
 42
0.0625
 43
0.38
 44
0.18
 45
0.0
 46
0.0
 47
0.0
 48
0.0
 71
     0
 72
     0
 73
     1
 74
     1
 75
     0
 76
     0
 77
     0
 78
     0
140
0.18
141
0.09
142
0.0
143
25.4
144
1.0
145
0.0
146
1.0
147
0.09
170
     0
171
     2
172
     0
173
     0
174
     0
175
     0
176
     0
177
     0
178
     0
  0
ENDTAB
  0
ENDSEC
  0
SECTION
  2
BLOCKS
  0
ENDSEC
  0
SECTION
  2
ENTITIES
  0
LINE
  8
2
  6
CONTINUOUS
 62
     7
  5
103
 10
-7205.0
 20
-2882.912006
 30
0.0
 11
-5765.0
 21
-2882.912006
 31
0.0
  0
LINE
  8
2
  6
CONTINUOUS
 62
     7
  5
104
 10
-5765.0
 20
-4962.912006
 30
0.0
 11
-7205.0
 21
-4962.912006
 31
0.0
  0
LINE
  8
2
  6
CONTINUOUS
 62
     7
  5
105
 10
-5765.0
 20
-2882.912006
 30
0.0
 11
-5765.0
 21
-4962.912006
 31
0.0
  0
LINE
  8
2
  6
CONTINUOUS
 62
     7
  5
106
 10
-6485.0
 20
-4782.912006
 30
0.0
 11
-5765.0
 21
-4782.912006
 31
0.0
  0
LINE
  8
2
  6
CONTINUOUS
 62
     7
  5
107
 10
-6485.0
 20
-4962.912006
 30
0.0
 11
-6485.0
 21
-4782.912006
 31
0.0
  0
LINE
  8
2
  6
CONTINUOUS
 62
     7
  5
108
 10
-6205.0
 20
-4962.912006
 30
0.0
 11
-6205.0
 21
-4782.912006
 31
0.0
  0
LINE
  8
2
  6
CONTINUOUS
 62
     7
  5
109
 10
-6485.0
 20
-4882.912006
 30
0.0
 11
-5765.0
 21
-4882.912006
 31
0.0
  0
LINE
  8
2
  6
CONTINUOUS
 62
     7
  5
10A
 10
-6370.0
 20
-4952.912006
 30
0.0
 11
-6340.0
 21
-4922.912006
 31
0.0
  0
LINE
  8
2
  6
CONTINUOUS
 62
     7
  5
10B
 10
-6385.0
 20
-4962.912006
 30
0.0
 11
-6385.0
 21
-4882.912006
 31
0.0
  0
LINE
  8
2
  6
CONTINUOUS
 62
     7
  5
10C
 10
-6305.0
 20
-4962.912006
 30
0.0
 11
-6305.0
 21
-4882.912006
 31
0.0
  0
LINE
  8
2
  6
CONTINUOUS
 62
     7
  5
10D
 10
-6105.0
 20
-4882.912006
 30
0.0
 11
-6105.0
 21
-4962.912006
 31
0.0
  0
LINE
  8
2
  6
CONTINUOUS
 62
     7
  5
10E
 10
-5905.0
 20
-4882.912006
 30
0.0
 11
-5905.0
 21
-4962.912006
 31
0.0
  0
LINE
  8
2
  6
CONTINUOUS
 62
     7
  5
10F
 10
-6005.0
 20
-4962.912006
 30
0.0
 11
-6005.0
 21
-4882.912006
 31
0.0
  0
LINE
  8
3
  6
CONTINUOUS
 62
     7
  5
110
 10
-7145.0
 20
-2962.912006
 30
0.0
 11
-5985.0
 21
-2962.912006
 31
0.0
  0
LINE
  8
3
  6
CONTINUOUS
 62
     7
  5
111
 10
-5985.0
 20
-2992.912006
 30
0.0
 11
-7145.0
 21
-2992.912006
 31
0.0
  0
LINE
  8
3
  6
CONTINUOUS
 62
     7
  5
112
 10
-5985.0
 20
-3142.912006
 30
0.0
 11
-7145.0
 21
-3142.912006
 31
0.0
  0
LINE
  8
3
  6
CONTINUOUS
 62
     7
  5
113
 10
-5985.0
 20
-3112.912006
 30
0.0
 11
-7145.0
 21
-3112.912006
 31
0.0
  0
LINE
  8
3
  6
CONTINUOUS
 62
     7
  5
114
 10
-5985.0
 20
-3052.912006
 30
0.0
 11
-7145.0
 21
-3052.912006
 31
0.0
  0
LINE
  8
3
  6
CONTINUOUS
 62
     7
  5
115
 10
-5985.0
 20
-3172.912006
 30
0.0
 11
-7145.0
 21
-3172.912006
 31
0.0
  0
LINE
  8
3
  6
CONTINUOUS
 62
     7
  5
116
 10
-5985.0
 20
-3082.912006
 30
0.0
 11
-7145.0
 21
-3082.912006
 31
0.0
  0
LINE
  8
3
  6
CONTINUOUS
 62
     7
  5
117
 10
-5985.0
 20
-3022.912006
 30
0.0
 11
-7145.0
 21
-3022.912006
 31
0.0
  0
LINE
  8
1
  6
CONTINUOUS
 62
    16
  5
118
 10
-7145.0
 20
-2962.912006
 30
0.0
 11
-7145.0
 21
-3172.912006
 31
0.0
  0
LINE
  8
1
  6
CONTINUOUS
 62
    16
  5
119
 10
-6785.0
 20
-2962.912006
 30
0.0
 11
-6785.0
 21
-3172.912006
 31
0.0
  0
LINE
  8
3
  6
CONTINUOUS
 62
     7
  5
11A
 10
-5985.0
 20
-2962.912006
 30
0.0
 11
-5985.0
 21
-3172.912006
 31
0.0
  0
LINE
  8
2
  6
CONTINUOUS
 62
     7
  5
11B
 10
-7205.0
 20
-4962.912006
 30
0.0
 11
-7205.0
 21
-2882.912006
 31
0.0
  0
LINE
  8
1
  6
CONTINUOUS
 62
    16
  5
11C
 10
-6270.645137
 20
-4038.890546
 30
0.0
 11
-6270.645137
 21
-4041.890546
 31
0.0
  0
LINE
  8
1
  6
CONTINUOUS
 62
    16
  5
11D
 10
-6270.645137
 20
-4080.890546
 30
0.0
 11
-6270.645137
 21
-4077.890546
 31
0.0
  0
LINE
  8
1
  6
CONTINUOUS
 62
    16
  5
11E
 10
-6267.645137
 20
-4081.890546
 30
0.0
 11
-6270.645137
 21
-4081.890546
 31
0.0
  0
LINE
  8
1
  6
CONTINUOUS
 62
    16
  5
11F
 10
-6270.645137
 20
-4043.890546
 30
0.0
 11
-6270.645137
 21
-4075.890546
 31
0.0
  0
LINE
  8
1
  6
CONTINUOUS
 62
    16
  5
120
 10
-6270.645137
 20
-4038.890546
 30
0.0
 11
-6584.645137
 21
-4038.890546
 31
0.0
  0
LINE
  8
1
  6
CONTINUOUS
 62
    16
  5
121
 10
-6270.645137
 20
-4080.890546
 30
0.0
 11
-6584.645137
 21
-4080.890546
 31
0.0
  0
LINE
  8
1
  6
CONTINUOUS
 62
    16
  5
122
 10
-6270.645137
 20
-4081.890546
 30
0.0
 11
-6270.645137
 21
-4037.890546
 31
0.0
  0
LINE
  8
1
  6
CONTINUOUS
 62
    16
  5
123
 10
-6267.645137
 20
-4037.890546
 30
0.0
 11
-6270.645137
 21
-4037.890546
 31
0.0
  0
LINE
  8
1
  6
CONTINUOUS
 62
    16
  5
124
 10
-6267.645137
 20
-4037.890546
 30
0.0
 11
-6267.645137
 21
-4081.890546
 31
0.0
  0
LINE
  8
1
  6
CONTINUOUS
 62
    16
  5
125
 10
-6587.645137
 20
-4037.890546
 30
0.0
 11
-6584.645137
 21
-4037.890546
 31
0.0
  0
LINE
  8
1
  6
CONTINUOUS
 62
    16
  5
126
 10
-6587.645137
 20
-4081.890546
 30
0.0
 11
-6584.645137
 21
-4081.890546
 31
0.0
  0
LINE
  8
1
  6
CONTINUOUS
 62
    16
  5
127
 10
-6584.645137
 20
-4037.890546
 30
0.0
 11
-6584.645137
 21
-4081.890546
 31
0.0
  0
LINE
  8
1
  6
CONTINUOUS
 62
    16
  5
128
 10
-6587.645137
 20
-4037.890546
 30
0.0
 11
-6587.645137
 21
-4081.890546
 31
0.0
  0
LINE
  8
1
  6
CONTINUOUS
 62
    16
  5
129
 10
-6584.645137
 20
-4080.890546
 30
0.0
 11
-6584.645137
 21
-4075.890546
 31
0.0
  0
LINE
  8
1
  6
CONTINUOUS
 62
    16
  5
12A
 10
-6584.645137
 20
-4038.890546
 30
0.0
 11
-6584.645137
 21
-4043.890546
 31
0.0
  0
POINT
  8
1
  6
CONTINUOUS
 62
    16
  5
12B
 10
-6587.645137
 20
-4037.890546
 30
0.0
  0
LINE
  8
1
  6
CONTINUOUS
 62
    16
  5
12C
 10
-6597.145137
 20
-4043.390546
 30
0.0
 11
-6589.145137
 21
-4043.390546
 31
0.0
  0
LINE
  8
1
  6
CONTINUOUS
 62
    16
  5
12D
 10
-6597.145137
 20
-4076.390546
 30
0.0
 11
-6589.145137
 21
-4076.390546
 31
0.0
  0
LINE
  8
1
  6
CONTINUOUS
 62
    16
  5
12E
 10
-6587.645137
 20
-4055.390546
 30
0.0
 11
-6587.645137
 21
-4064.390546
 31
0.0
  0
POINT
  8
1
  6
CONTINUOUS
 62
    16
  5
12F
 10
-6589.826404
 20
-4062.515547
 30
0.0
  0
POINT
  8
1
  6
CONTINUOUS
 62
    16
  5
130
 10
-6589.826404
 20
-4062.515547
 30
0.0
  0
POINT
  8
1
  6
CONTINUOUS
 62
    16
  5
131
 10
-6589.826404
 20
-4062.515547
 30
0.0
  0
ARC
  8
1
  6
CONTINUOUS
 62
    16
  5
132
 10
-6587.081646
 20
-4063.354648
 30
0.001526
 40
2.063491
 50
180.0
 51
214.027169
  0
ARC
  8
1
  6
CONTINUOUS
 62
    16
  5
133
 10
-6587.081646
 20
-4063.354648
 30
0.001526
 40
2.063491
 50
145.972831
 51
180.0
  0
ARC
  8
1
  6
CONTINUOUS
 62
    16
  5
134
 10
-6587.086454
 20
-4056.426445
 30
0.001526
 40
2.059508
 50
178.378247
 51
181.621753
  0
ARC
  8
1
  6
CONTINUOUS
 62
    16
  5
135
 10
-6587.086454
 20
-4056.426445
 30
0.001526
 40
2.059508
 50
145.897987
 51
178.378247
  0
ARC
  8
1
  6
CONTINUOUS
 62
    16
  5
136
 10
-6581.421164
 20
-4059.890547
 30
0.001526
 40
7.723973
 50
162.60297
 51
180.0
  0
ARC
  8
1
  6
CONTINUOUS
 62
    16
  5
137
 10
-6581.421164
 20
-4059.890547
 30
0.001526
 40
7.723973
 50
180.0
 51
197.39703
  0
ARC
  8
1
  6
CONTINUOUS
 62
    16
  5
138
 10
-6587.086454
 20
-4056.426445
 30
0.001526
 40
2.059508
 50
181.621753
 51
214.102013
  0
LINE
  8
1
  6
CONTINUOUS
 62
    16
  5
139
 10
-6588.79181
 20
-4064.509349
 30
0.001526
 11
-6587.645137
 21
-4064.509349
 31
0.001526
  0
LINE
  8
1
  6
CONTINUOUS
 62
    16
  5
13A
 10
-6589.145137
 20
-4056.484731
 30
0.001526
 11
-6589.145137
 21
-4059.890547
 31
0.001526
  0
LINE
  8
1
  6
CONTINUOUS
 62
    16
  5
13B
 10
-6589.145137
 20
-4056.368159
 30
0.001526
 11
-6589.145137
 21
-4056.484731
 31
0.001526
  0
LINE
  8
1
  6
CONTINUOUS
 62
    16
  5
13C
 10
-6589.145137
 20
-4059.890547
 30
0.001526
 11
-6589.145137
 21
-4063.354648
 31
0.001526
  0
LINE
  8
1
  6
CONTINUOUS
 62
    16
  5
13D
 10
-6588.79181
 20
-4062.199948
 30
0.001526
 11
-6587.645137
 21
-4062.199948
 31
0.001526
  0
LINE
  8
1
  6
CONTINUOUS
 62
    16
  5
13E
 10
-6588.79181
 20
-4057.581146
 30
0.001526
 11
-6587.645137
 21
-4057.581146
 31
0.001526
  0
LINE
  8
1
  6
CONTINUOUS
 62
    16
  5
13F
 10
-6587.645137
 20
-4055.271744
 30
0.001526
 11
-6588.79181
 21
-4055.271744
 31
0.001526
  0
LINE
  8
1
  6
CONTINUOUS
 62
    16
  5
140
 10
-6589.145137
 20
-4057.290547
 30
0.001526
 11
-6589.826404
 21
-4057.290547
 31
0.001526
  0
LINE
  8
1
  6
CONTINUOUS
 62
    16
  5
141
 10
-6589.145137
 20
-4056.890547
 30
0.001526
 11
-6589.426404
 21
-4056.890547
 31
0.001526
  0
LINE
  8
1
  6
CONTINUOUS
 62
    16
  5
142
 10
-6589.826404
 20
-4062.490547
 30
0.001526
 11
-6589.145137
 21
-4062.490547
 31
0.001526
  0
LINE
  8
1
  6
CONTINUOUS
 62
    16
  5
143
 10
-6589.426404
 20
-4059.890547
 30
0.001526
 11
-6589.426404
 21
-4062.890547
 31
0.001526
  0
LINE
  8
1
  6
CONTINUOUS
 62
    16
  5
144
 10
-6589.426404
 20
-4062.890547
 30
0.001526
 11
-6589.826404
 21
-4062.490547
 31
0.001526
  0
LINE
  8
1
  6
CONTINUOUS
 62
    16
  5
145
 10
-6589.426404
 20
-4062.890547
 30
0.001526
 11
-6589.145137
 21
-4062.890547
 31
0.001526
  0
LINE
  8
1
  6
CONTINUOUS
 62
    16
  5
146
 10
-6589.426404
 20
-4056.890547
 30
0.001526
 11
-6589.426404
 21
-4059.890547
 31
0.001526
  0
LINE
  8
1
  6
CONTINUOUS
 62
    16
  5
147
 10
-6589.826404
 20
-4057.290547
 30
0.001526
 11
-6589.426404
 21
-4056.890547
 31
0.001526
  0
LINE
  8
1
  6
CONTINUOUS
 62
    16
  5
148
 10
-6589.926404
 20
-4057.770553
 30
0.001526
 11
-6592.126404
 21
-4057.770553
 31
0.001526
  0
LINE
  8
1
  6
CONTINUOUS
 62
    16
  5
149
 10
-6592.126404
 20
-4062.010541
 30
0.001526
 11
-6589.926404
 21
-4062.010541
 31
0.001526
  0
LINE
  8
1
  6
CONTINUOUS
 62
    16
  5
14A
 10
-6589.926404
 20
-4057.265547
 30
0.001526
 11
-6589.826404
 21
-4057.265547
 31
0.001526
  0
LINE
  8
1
  6
CONTINUOUS
 62
    16
  5
14B
 10
-6589.826404
 20
-4062.515547
 30
0.001526
 11
-6589.926404
 21
-4062.515547
 31
0.001526
  0
LINE
  8
1
  6
CONTINUOUS
 62
    16
  5
14C
 10
-6589.926404
 20
-4062.515547
 30
0.001526
 11
-6589.926404
 21
-4057.265547
 31
0.001526
  0
LINE
  8
1
  6
CONTINUOUS
 62
    16
  5
14D
 10
-6589.826404
 20
-4062.515547
 30
0.001526
 11
-6589.826404
 21
-4057.265547
 31
0.001526
  0
POINT
  8
1
  6
CONTINUOUS
 62
    16
  5
14E
 10
-6604.416294
 20
-4061.155426
 30
0.0
  0
POINT
  8
1
  6
CONTINUOUS
 62
    16
  5
14F
 10
-6603.312452
 20
-4066.134535
 30
0.0
  0
ARC
  8
1
  6
CONTINUOUS
 62
    16
  5
150
 10
-6592.527724
 20
-4060.959607
 30
0.001526
 40
0.1
 50
12.5
 51
41.003272
  0
ARC
  8
1
  6
CONTINUOUS
 62
    16
  5
151
 10
-6592.454992
 20
-4061.287681
 30
0.001526
 40
0.1
 50
293.809932
 51
12.5
  0
ARC
  8
1
  6
CONTINUOUS
 62
    16
  5
152
 10
-6604.199854
 20
-4062.131722
 30
0.001526
 40
1.0
 50
102.5
 51
130.66459
  0
ARC
  8
1
  6
CONTINUOUS
 62
    16
  5
153
 10
-6603.528891
 20
-4065.158239
 30
0.001526
 40
1.0
 50
254.33541
 51
282.5
  0
ARC
  8
1
  6
CONTINUOUS
 62
    16
  5
154
 10
-6604.499799
 20
-4063.785851
 30
0.001526
 40
2.2
 50
151.269423
 51
233.730577
  0
LINE
  8
1
  6
CONTINUOUS
 62
    16
  5
155
 10
-6593.61893
 20
-4060.195699
 30
0.001526
 11
-6593.526404
 21
-4060.175187
 31
0.001526
  0
LINE
  8
1
  6
CONTINUOUS
 62
    16
  5
156
 10
-6593.121119
 20
-4062.44118
 30
0.001526
 11
-6591.178634
 21
-4062.010541
 31
0.001526
  0
LINE
  8
1
  6
CONTINUOUS
 62
    16
  5
157
 10
-6593.857014
 20
-4059.121774
 30
0.001526
 11
-6593.526404
 21
-4060.613057
 31
0.001526
  0
LINE
  8
1
  6
CONTINUOUS
 62
    16
  5
158
 10
-6599.324271
 20
-4060.333836
 30
0.001526
 11
-6593.857014
 21
-4059.121774
 31
0.001526
  0
LINE
  8
1
  6
CONTINUOUS
 62
    16
  5
159
 10
-6593.272627
 20
-4061.757773
 30
0.001526
 11
-6592.883036
 21
-4063.515106
 31
0.001526
  0
LINE
  8
1
  6
CONTINUOUS
 62
    16
  5
15A
 10
-6592.883036
 20
-4063.515106
 30
0.001526
 11
-6598.350293
 21
-4064.727168
 31
0.001526
  0
LINE
  8
1
  6
CONTINUOUS
 62
    16
  5
15B
 10
-6593.467423
 20
-4060.879106
 30
0.001526
 11
-6592.672137
 21
-4060.862586
 31
0.001526
  0
LINE
  8
1
  6
CONTINUOUS
 62
    16
  5
15C
 10
-6592.430095
 20
-4060.937963
 30
0.001526
 11
-6592.357363
 21
-4061.266037
 31
0.001526
  0
LINE
  8
1
  6
CONTINUOUS
 62
    16
  5
15D
 10
-6592.414622
 20
-4061.37917
 30
0.001526
 11
-6593.272627
 21
-4061.757773
 31
0.001526
  0
LINE
  8
1
  6
CONTINUOUS
 62
    16
  5
15E
 10
-6598.285361
 20
-4065.020056
 30
0.001526
 11
-6599.389203
 21
-4060.040947
 31
0.001526
  0
LINE
  8
1
  6
CONTINUOUS
 62
    16
  5
15F
 10
-6606.428957
 20
-4062.72833
 30
0.001526
 11
-6604.851484
 21
-4061.373185
 31
0.001526
  0
LINE
  8
1
  6
CONTINUOUS
 62
    16
  5
160
 10
-6604.416294
 20
-4061.155426
 30
0.001526
 11
-6599.389203
 21
-4060.040947
 31
0.001526
  0
LINE
  8
1
  6
CONTINUOUS
 62
    16
  5
161
 10
-6603.798897
 20
-4066.121098
 30
0.001526
 11
-6605.801282
 21
-4065.559588
 31
0.001526
  0
LINE
  8
1
  6
CONTINUOUS
 62
    16
  5
162
 10
-6598.285361
 20
-4065.020056
 30
0.001526
 11
-6603.312452
 21
-4066.134535
 31
0.001526
  0
LINE
  8
1
  6
CONTINUOUS
 62
    16
  5
163
 10
-6593.497216
 20
-4060.744717
 30
0.001526
 11
-6593.467423
 21
-4060.879106
 31
0.001526
  0
LINE
  8
1
  6
CONTINUOUS
 62
    16
  5
164
 10
-6592.126404
 20
-4060.940547
 30
0.001526
 11
-6593.526404
 21
-4060.740547
 31
0.001526
  0
LINE
  8
1
  6
CONTINUOUS
 62
    16
  5
165
 10
-6593.526404
 20
-4060.740547
 30
0.001526
 11
-6593.526404
 21
-4059.040547
 31
0.001526
  0
LINE
  8
1
  6
CONTINUOUS
 62
    16
  5
166
 10
-6593.526404
 20
-4059.040547
 30
0.001526
 11
-6592.126404
 21
-4058.840547
 31
0.001526
  0
LINE
  8
1
  6
CONTINUOUS
 62
    16
  5
167
 10
-6592.126404
 20
-4062.010541
 30
0.001526
 11
-6592.126404
 21
-4060.940547
 31
0.001526
  0
LINE
  8
1
  6
CONTINUOUS
 62
    16
  5
168
 10
-6592.126404
 20
-4058.840547
 30
0.001526
 11
-6592.126404
 21
-4057.770553
 31
0.001526
  0
LINE
  8
1
  6
CONTINUOUS
 62
    16
  5
169
 10
-6587.645137
 20
-4055.271744
 30
0.0
 11
-6587.645137
 21
-4064.509349
 31
0.0
  0
LINE
  8
1
  6
CONTINUOUS
 62
    16
  5
16A
 10
-6589.145137
 20
-4076.390546
 30
0.0
 11
-6589.145137
 21
-4063.35465
 31
0.0
  0
LINE
  8
1
  6
CONTINUOUS
 62
    16
  5
16B
 10
-6589.145137
 20
-4056.368156
 30
0.0
 11
-6589.145137
 21
-4043.390546
 31
0.0
  0
LINE
  8
1
  6
CONTINUOUS
 62
    16
  5
16C
 10
-6597.145137
 20
-4076.390546
 30
0.0
 11
-6597.145137
 21
-4064.459991
 31
0.0
  0
LINE
  8
1
  6
CONTINUOUS
 62
    16
  5
16D
 10
-6597.145137
 20
-4059.850733
 30
0.0
 11
-6597.145137
 21
-4043.390546
 31
0.0
  0
LINE
  8
0
  6
CONTINUOUS
 62
     7
  5
16E
 10
-6267.645137
 20
-4080.102738
 30
0.0
 11
-6265.145137
 21
-4080.102738
 31
0.0
  0
LINE
  8
0
  6
CONTINUOUS
 62
     7
  5
16F
 10
-6265.145137
 20
-4075.028471
 30
0.0
 11
-6263.531177
 21
-4074.972111
 31
0.0
  0
LINE
  8
0
  6
CONTINUOUS
 62
     7
  5
170
 10
-6263.145137
 20
-4071.328471
 30
0.0
 11
-6261.127687
 21
-4071.258021
 31
0.0
  0
LINE
  8
0
  6
CONTINUOUS
 62
     7
  5
171
 10
-6260.807581
 20
-4049.713057
 30
0.0
 11
-6259.93982
 21
-4049.713057
 31
0.0
  0
LINE
  8
0
  6
CONTINUOUS
 62
     7
  5
172
 10
-6259.93982
 20
-4048.747612
 30
0.0
 11
-6263.145137
 21
-4048.747612
 31
0.0
  0
LINE
  8
23
  6
CONTINUOUS
 62
     5
  5
173
 10
-6263.145137
 20
-4048.747612
 30
0.0
 11
-6259.93982
 21
-4048.747612
 31
0.0
  0
LINE
  8
0
  6
CONTINUOUS
 62
     7
  5
174
 10
-6267.645137
 20
-4039.681889
 30
0.0
 11
-6267.645137
 21
-4080.099204
 31
0.0
  0
LINE
  8
0
  6
CONTINUOUS
 62
     7
  5
175
 10
-6265.145137
 20
-4044.028471
 30
0.0
 11
-6263.531177
 21
-4044.084832
 31
0.0
  0
LINE
  8
0
  6
CONTINUOUS
 62
     7
  5
176
 10
-6265.145137
 20
-4039.681437
 30
0.0
 11
-6267.645137
 21
-4039.681437
 31
0.0
  0
LINE
  8
0
  6
CONTINUOUS
 62
     9
  5
177
 10
-6260.645137
 20
-4070.758224
 30
0.0
 11
-6260.645137
 21
-4070.728057
 31
0.0
  0
LINE
  8
0
  6
CONTINUOUS
 62
     9
  5
178
 10
-6260.645137
 20
-4050.081668
 30
0.0
 11
-6260.645137
 21
-4050.080211
 31
0.0
  0
LINE
  8
0
  6
CONTINUOUS
 62
     7
  5
179
 10
-6259.43982
 20
-4043.013057
 30
0.0
 11
-6259.43982
 21
-4048.413057
 31
0.0
  0
ARC
  8
0
  6
CONTINUOUS
 62
     7
  5
17A
 10
-6259.93982
 20
-4048.247612
 30
0.0
 40
0.5
 50
270.0
 51
348.09899
  0
ARC
  8
23
  6
CONTINUOUS
 62
     5
  5
17B
 10
-6259.93982
 20
-4048.247612
 30
0.0
 40
0.5
 50
270.0
 51
356.62344
  0
ARC
  8
0
  6
CONTINUOUS
 62
     7
  5
17C
 10
-6261.145137
 20
-4070.758325
 30
0.0
 40
0.5
 50
272.0
 51
360.0
  0
ARC
  8
0
  6
CONTINUOUS
 62
     7
  5
17D
 10
-6263.545137
 20
-4074.572354
 30
0.0
 40
0.4
 50
272.0
 51
360.0
  0
ARC
  8
0
  6
CONTINUOUS
 62
     7
  5
17E
 10
-6263.545137
 20
-4044.484589
 30
0.0
 40
0.4
 50
0.0
 51
88.0
  0
POLYLINE
  8
0
  6
CONTINUOUS
 62
     7
  5
17F
 66
     1
 10
0.0
 20
0.0
 30
0.0
 70
     4
 75
     6
  0
VERTEX
  8
0
  6
CONTINUOUS
 62
     7
  5
180
 10
-6259.93982
 20
-4049.713057
 30
0.0
 70
    16
  0
VERTEX
  8
0
  6
CONTINUOUS
 62
     7
  5
181
 10
-6259.93982
 20
-4049.713057
 30
0.0
 70
     8
  0
VERTEX
  8
0
  6
CONTINUOUS
 62
     7
  5
182
 10
-6259.9341
 20
-4049.713055
 30
0.0
 70
     8
  0
VERTEX
  8
0
  6
CONTINUOUS
 62
     7
  5
183
 10
-6259.928323
 20
-4049.713044
 30
0.0
 70
     8
  0
VERTEX
  8
0
  6
CONTINUOUS
 62
     7
  5
184
 10
-6259.922432
 20
-4049.713014
 30
0.0
 70
     8
  0
VERTEX
  8
0
  6
CONTINUOUS
 62
     7
  5
185
 10
-6259.91637
 20
-4049.712956
 30
0.0
 70
     8
  0
VERTEX
  8
0
  6
CONTINUOUS
 62
     7
  5
186
 10
-6259.910079
 20
-4049.71286
 30
0.0
 70
     8
  0
VERTEX
  8
0
  6
CONTINUOUS
 62
     7
  5
187
 10
-6259.903503
 20
-4049.712716
 30
0.0
 70
     8
  0
VERTEX
  8
0
  6
CONTINUOUS
 62
     7
  5
188
 10
-6259.896585
 20
-4049.712516
 30
0.0
 70
     8
  0
VERTEX
  8
0
  6
CONTINUOUS
 62
     7
  5
189
 10
-6259.889268
 20
-4049.712249
 30
0.0
 70
     8
  0
VERTEX
  8
0
  6
CONTINUOUS
 62
     7
  5
18A
 10
-6259.881494
 20
-4049.711907
 30
0.0
 70
     8
  0
VERTEX
  8
0
  6
CONTINUOUS
 62
     7
  5
18B
 10
-6259.873207
 20
-4049.711479
 30
0.0
 70
     8
  0
VERTEX
  8
0
  6
CONTINUOUS
 62
     7
  5
18C
 10
-6259.86436
 20
-4049.710955
 30
0.0
 70
     8
  0
VERTEX
  8
0
  6
CONTINUOUS
 62
     7
  5
18D
 10
-6259.854946
 20
-4049.710314
 30
0.0
 70
     8
  0
VERTEX
  8
0
  6
CONTINUOUS
 62
     7
  5
18E
 10
-6259.844971
 20
-4049.709533
 30
0.0
 70
     8
  0
VERTEX
  8
0
  6
CONTINUOUS
 62
     7
  5
18F
 10
-6259.834439
 20
-4049.70859
 30
0.0
 70
     8
  0
VERTEX
  8
0
  6
CONTINUOUS
 62
     7
  5
190
 10
-6259.823354
 20
-4049.707463
 30
0.0
 70
     8
  0
VERTEX
  8
0
  6
CONTINUOUS
 62
     7
  5
191
 10
-6259.811722
 20
-4049.70613
 30
0.0
 70
     8
  0
VERTEX
  8
0
  6
CONTINUOUS
 62
     7
  5
192
 10
-6259.799545
 20
-4049.704567
 30
0.0
 70
     8
  0
VERTEX
  8
0
  6
CONTINUOUS
 62
     7
  5
193
 10
-6259.786829
 20
-4049.702752
 30
0.0
 70
     8
  0
VERTEX
  8
0
  6
CONTINUOUS
 62
     7
  5
194
 10
-6259.773578
 20
-4049.700664
 30
0.0
 70
     8
  0
VERTEX
  8
0
  6
CONTINUOUS
 62
     7
  5
195
 10
-6259.759797
 20
-4049.698279
 30
0.0
 70
     8
  0
VERTEX
  8
0
  6
CONTINUOUS
 62
     7
  5
196
 10
-6259.745499
 20
-4049.695581
 30
0.0
 70
     8
  0
VERTEX
  8
0
  6
CONTINUOUS
 62
     7
  5
197
 10
-6259.730736
 20
-4049.692569
 30
0.0
 70
     8
  0
VERTEX
  8
0
  6
CONTINUOUS
 62
     7
  5
198
 10
-6259.715566
 20
-4049.689251
 30
0.0
 70
     8
  0
VERTEX
  8
0
  6
CONTINUOUS
 62
     7
  5
199
 10
-6259.70005
 20
-4049.685633
 30
0.0
 70
     8
  0
VERTEX
  8
0
  6
CONTINUOUS
 62
     7
  5
19A
 10
-6259.684247
 20
-4049.68172
 30
0.0
 70
     8
  0
VERTEX
  8
0
  6
CONTINUOUS
 62
     7
  5
19B
 10
-6259.668219
 20
-4049.677519
 30
0.0
 70
     8
  0
VERTEX
  8
0
  6
CONTINUOUS
 62
     7
  5
19C
 10
-6259.652024
 20
-4049.673036
 30
0.0
 70
     8
  0
VERTEX
  8
0
  6
CONTINUOUS
 62
     7
  5
19D
 10
-6259.635722
 20
-4049.668277
 30
0.0
 70
     8
  0
VERTEX
  8
0
  6
CONTINUOUS
 62
     7
  5
19E
 10
-6259.619374
 20
-4049.663248
 30
0.0
 70
     8
  0
VERTEX
  8
0
  6
CONTINUOUS
 62
     7
  5
19F
 10
-6259.603038
 20
-4049.657954
 30
0.0
 70
     8
  0
VERTEX
  8
0
  6
CONTINUOUS
 62
     7
  5
1A0
 10
-6259.586767
 20
-4049.652402
 30
0.0
 70
     8
  0
VERTEX
  8
0
  6
CONTINUOUS
 62
     7
  5
1A1
 10
-6259.570568
 20
-4049.646592
 30
0.0
 70
     8
  0
VERTEX
  8
0
  6
CONTINUOUS
 62
     7
  5
1A2
 10
-6259.554441
 20
-4049.640522
 30
0.0
 70
     8
  0
VERTEX
  8
0
  6
CONTINUOUS
 62
     7
  5
1A3
 10
-6259.538386
 20
-4049.634192
 30
0.0
 70
     8
  0
VERTEX
  8
0
  6
CONTINUOUS
 62
     7
  5
1A4
 10
-6259.522404
 20
-4049.6276
 30
0.0
 70
     8
  0
VERTEX
  8
0
  6
CONTINUOUS
 62
     7
  5
1A5
 10
-6259.506492
 20
-4049.620747
 30
0.0
 70
     8
  0
VERTEX
  8
0
  6
CONTINUOUS
 62
     7
  5
1A6
 10
-6259.490652
 20
-4049.613631
 30
0.0
 70
     8
  0
VERTEX
  8
0
  6
CONTINUOUS
 62
     7
  5
1A7
 10
-6259.474882
 20
-4049.606251
 30
0.0
 70
     8
  0
VERTEX
  8
0
  6
CONTINUOUS
 62
     7
  5
1A8
 10
-6259.459182
 20
-4049.598607
 30
0.0
 70
     8
  0
VERTEX
  8
0
  6
CONTINUOUS
 62
     7
  5
1A9
 10
-6259.443552
 20
-4049.590698
 30
0.0
 70
     8
  0
VERTEX
  8
0
  6
CONTINUOUS
 62
     7
  5
1AA
 10
-6259.427992
 20
-4049.582523
 30
0.0
 70
     8
  0
VERTEX
  8
0
  6
CONTINUOUS
 62
     7
  5
1AB
 10
-6259.412504
 20
-4049.574079
 30
0.0
 70
     8
  0
VERTEX
  8
0
  6
CONTINUOUS
 62
     7
  5
1AC
 10
-6259.397089
 20
-4049.565366
 30
0.0
 70
     8
  0
VERTEX
  8
0
  6
CONTINUOUS
 62
     7
  5
1AD
 10
-6259.381749
 20
-4049.556379
 30
0.0
 70
     8
  0
VERTEX
  8
0
  6
CONTINUOUS
 62
     7
  5
1AE
 10
-6259.366486
 20
-4049.547119
 30
0.0
 70
     8
  0
VERTEX
  8
0
  6
CONTINUOUS
 62
     7
  5
1AF
 10
-6259.351302
 20
-4049.537581
 30
0.0
 70
     8
  0
VERTEX
  8
0
  6
CONTINUOUS
 62
     7
  5
1B0
 10
-6259.336199
 20
-4049.527765
 30
0.0
 70
     8
  0
VERTEX
  8
0
  6
CONTINUOUS
 62
     7
  5
1B1
 10
-6259.321178
 20
-4049.517669
 30
0.0
 70
     8
  0
VERTEX
  8
0
  6
CONTINUOUS
 62
     7
  5
1B2
 10
-6259.306242
 20
-4049.507289
 30
0.0
 70
     8
  0
VERTEX
  8
0
  6
CONTINUOUS
 62
     7
  5
1B3
 10
-6259.291393
 20
-4049.496624
 30
0.0
 70
     8
  0
VERTEX
  8
0
  6
CONTINUOUS
 62
     7
  5
1B4
 10
-6259.276633
 20
-4049.485672
 30
0.0
 70
     8
  0
VERTEX
  8
0
  6
CONTINUOUS
 62
     7
  5
1B5
 10
-6259.261966
 20
-4049.474432
 30
0.0
 70
     8
  0
VERTEX
  8
0
  6
CONTINUOUS
 62
     7
  5
1B6
 10
-6259.247397
 20
-4049.462902
 30
0.0
 70
     8
  0
VERTEX
  8
0
  6
CONTINUOUS
 62
     7
  5
1B7
 10
-6259.232931
 20
-4049.451081
 30
0.0
 70
     8
  0
VERTEX
  8
0
  6
CONTINUOUS
 62
     7
  5
1B8
 10
-6259.218573
 20
-4049.438968
 30
0.0
 70
     8
  0
VERTEX
  8
0
  6
CONTINUOUS
 62
     7
  5
1B9
 10
-6259.204328
 20
-4049.426561
 30
0.0
 70
     8
  0
VERTEX
  8
0
  6
CONTINUOUS
 62
     7
  5
1BA
 10
-6259.190201
 20
-4049.41386
 30
0.0
 70
     8
  0
VERTEX
  8
0
  6
CONTINUOUS
 62
     7
  5
1BB
 10
-6259.176197
 20
-4049.400863
 30
0.0
 70
     8
  0
VERTEX
  8
0
  6
CONTINUOUS
 62
     7
  5
1BC
 10
-6259.16232
 20
-4049.387569
 30
0.0
 70
     8
  0
VERTEX
  8
0
  6
CONTINUOUS
 62
     7
  5
1BD
 10
-6259.148576
 20
-4049.373977
 30
0.0
 70
     8
  0
VERTEX
  8
0
  6
CONTINUOUS
 62
     7
  5
1BE
 10
-6259.134969
 20
-4049.360085
 30
0.0
 70
     8
  0
VERTEX
  8
0
  6
CONTINUOUS
 62
     7
  5
1BF
 10
-6259.121505
 20
-4049.345896
 30
0.0
 70
     8
  0
VERTEX
  8
0
  6
CONTINUOUS
 62
     7
  5
1C0
 10
-6259.108191
 20
-4049.331409
 30
0.0
 70
     8
  0
VERTEX
  8
0
  6
CONTINUOUS
 62
     7
  5
1C1
 10
-6259.095032
 20
-4049.316627
 30
0.0
 70
     8
  0
VERTEX
  8
0
  6
CONTINUOUS
 62
     7
  5
1C2
 10
-6259.082034
 20
-4049.301551
 30
0.0
 70
     8
  0
VERTEX
  8
0
  6
CONTINUOUS
 62
     7
  5
1C3
 10
-6259.069203
 20
-4049.286182
 30
0.0
 70
     8
  0
VERTEX
  8
0
  6
CONTINUOUS
 62
     7
  5
1C4
 10
-6259.056545
 20
-4049.270522
 30
0.0
 70
     8
  0
VERTEX
  8
0
  6
CONTINUOUS
 62
     7
  5
1C5
 10
-6259.044065
 20
-4049.254572
 30
0.0
 70
     8
  0
VERTEX
  8
0
  6
CONTINUOUS
 62
     7
  5
1C6
 10
-6259.031771
 20
-4049.238334
 30
0.0
 70
     8
  0
VERTEX
  8
0
  6
CONTINUOUS
 62
     7
  5
1C7
 10
-6259.019667
 20
-4049.221808
 30
0.0
 70
     8
  0
VERTEX
  8
0
  6
CONTINUOUS
 62
     7
  5
1C8
 10
-6259.007759
 20
-4049.204996
 30
0.0
 70
     8
  0
VERTEX
  8
0
  6
CONTINUOUS
 62
     7
  5
1C9
 10
-6258.996053
 20
-4049.187899
 30
0.0
 70
     8
  0
VERTEX
  8
0
  6
CONTINUOUS
 62
     7
  5
1CA
 10
-6258.984552
 20
-4049.170517
 30
0.0
 70
     8
  0
VERTEX
  8
0
  6
CONTINUOUS
 62
     7
  5
1CB
 10
-6258.97326
 20
-4049.15285
 30
0.0
 70
     8
  0
VERTEX
  8
0
  6
CONTINUOUS
 62
     7
  5
1CC
 10
-6258.962182
 20
-4049.134899
 30
0.0
 70
     8
  0
VERTEX
  8
0
  6
CONTINUOUS
 62
     7
  5
1CD
 10
-6258.951323
 20
-4049.116663
 30
0.0
 70
     8
  0
VERTEX
  8
0
  6
CONTINUOUS
 62
     7
  5
1CE
 10
-6258.940686
 20
-4049.098144
 30
0.0
 70
     8
  0
VERTEX
  8
0
  6
CONTINUOUS
 62
     7
  5
1CF
 10
-6258.930276
 20
-4049.079342
 30
0.0
 70
     8
  0
VERTEX
  8
0
  6
CONTINUOUS
 62
     7
  5
1D0
 10
-6258.920097
 20
-4049.060257
 30
0.0
 70
     8
  0
VERTEX
  8
0
  6
CONTINUOUS
 62
     7
  5
1D1
 10
-6258.910154
 20
-4049.040889
 30
0.0
 70
     8
  0
VERTEX
  8
0
  6
CONTINUOUS
 62
     7
  5
1D2
 10
-6258.900454
 20
-4049.021253
 30
0.0
 70
     8
  0
VERTEX
  8
0
  6
CONTINUOUS
 62
     7
  5
1D3
 10
-6258.891019
 20
-4049.001421
 30
0.0
 70
     8
  0
VERTEX
  8
0
  6
CONTINUOUS
 62
     7
  5
1D4
 10
-6258.881874
 20
-4048.981477
 30
0.0
 70
     8
  0
VERTEX
  8
0
  6
CONTINUOUS
 62
     7
  5
1D5
 10
-6258.873045
 20
-4048.961507
 30
0.0
 70
     8
  0
VERTEX
  8
0
  6
CONTINUOUS
 62
     7
  5
1D6
 10
-6258.864557
 20
-4048.941598
 30
0.0
 70
     8
  0
VERTEX
  8
0
  6
CONTINUOUS
 62
     7
  5
1D7
 10
-6258.856434
 20
-4048.921833
 30
0.0
 70
     8
  0
VERTEX
  8
0
  6
CONTINUOUS
 62
     7
  5
1D8
 10
-6258.848703
 20
-4048.9023
 30
0.0
 70
     8
  0
VERTEX
  8
0
  6
CONTINUOUS
 62
     7
  5
1D9
 10
-6258.841388
 20
-4048.883082
 30
0.0
 70
     8
  0
VERTEX
  8
0
  6
CONTINUOUS
 62
     7
  5
1DA
 10
-6258.834515
 20
-4048.864267
 30
0.0
 70
     8
  0
VERTEX
  8
0
  6
CONTINUOUS
 62
     7
  5
1DB
 10
-6258.828108
 20
-4048.845938
 30
0.0
 70
     8
  0
VERTEX
  8
0
  6
CONTINUOUS
 62
     7
  5
1DC
 10
-6258.822185
 20
-4048.828171
 30
0.0
 70
     8
  0
VERTEX
  8
0
  6
CONTINUOUS
 62
     7
  5
1DD
 10
-6258.816728
 20
-4048.810991
 30
0.0
 70
     8
  0
VERTEX
  8
0
  6
CONTINUOUS
 62
     7
  5
1DE
 10
-6258.811711
 20
-4048.794413
 30
0.0
 70
     8
  0
VERTEX
  8
0
  6
CONTINUOUS
 62
     7
  5
1DF
 10
-6258.807108
 20
-4048.778452
 30
0.0
 70
     8
  0
VERTEX
  8
0
  6
CONTINUOUS
 62
     7
  5
1E0
 10
-6258.802893
 20
-4048.763121
 30
0.0
 70
     8
  0
VERTEX
  8
0
  6
CONTINUOUS
 62
     7
  5
1E1
 10
-6258.79904
 20
-4048.748437
 30
0.0
 70
     8
  0
VERTEX
  8
0
  6
CONTINUOUS
 62
     7
  5
1E2
 10
-6258.795522
 20
-4048.734413
 30
0.0
 70
     8
  0
VERTEX
  8
0
  6
CONTINUOUS
 62
     7
  5
1E3
 10
-6258.792315
 20
-4048.721064
 30
0.0
 70
     8
  0
VERTEX
  8
0
  6
CONTINUOUS
 62
     7
  5
1E4
 10
-6258.789391
 20
-4048.708405
 30
0.0
 70
     8
  0
VERTEX
  8
0
  6
CONTINUOUS
 62
     7
  5
1E5
 10
-6258.786724
 20
-4048.696451
 30
0.0
 70
     8
  0
VERTEX
  8
0
  6
CONTINUOUS
 62
     7
  5
1E6
 10
-6258.78429
 20
-4048.6852
 30
0.0
 70
     8
  0
VERTEX
  8
0
  6
CONTINUOUS
 62
     7
  5
1E7
 10
-6258.782065
 20
-4048.674597
 30
0.0
 70
     8
  0
VERTEX
  8
0
  6
CONTINUOUS
 62
     7
  5
1E8
 10
-6258.780025
 20
-4048.664569
 30
0.0
 70
     8
  0
VERTEX
  8
0
  6
CONTINUOUS
 62
     7
  5
1E9
 10
-6258.778147
 20
-4048.655044
 30
0.0
 70
     8
  0
VERTEX
  8
0
  6
CONTINUOUS
 62
     7
  5
1EA
 10
-6258.776408
 20
-4048.645951
 30
0.0
 70
     8
  0
VERTEX
  8
0
  6
CONTINUOUS
 62
     7
  5
1EB
 10
-6258.774784
 20
-4048.637217
 30
0.0
 70
     8
  0
VERTEX
  8
0
  6
CONTINUOUS
 62
     7
  5
1EC
 10
-6258.773254
 20
-4048.62877
 30
0.0
 70
     8
  0
VERTEX
  8
0
  6
CONTINUOUS
 62
     7
  5
1ED
 10
-6258.771793
 20
-4048.62054
 30
0.0
 70
     8
  0
VERTEX
  8
0
  6
CONTINUOUS
 62
     7
  5
1EE
 10
-6258.770378
 20
-4048.612453
 30
0.0
 70
     8
  0
VERTEX
  8
0
  6
CONTINUOUS
 62
     7
  5
1EF
 10
-6258.768986
 20
-4048.604438
 30
0.0
 70
     8
  0
VERTEX
  8
0
  6
CONTINUOUS
 62
     7
  5
1F0
 10
-6259.882715
 20
-4049.713057
 30
0.0
 70
    16
  0
VERTEX
  8
0
  6
CONTINUOUS
 62
     7
  5
1F1
 10
-6259.768562
 20
-4049.703592
 30
0.0
 70
    16
  0
VERTEX
  8
0
  6
CONTINUOUS
 62
     7
  5
1F2
 10
-6259.601819
 20
-4049.66225
 30
0.0
 70
    16
  0
VERTEX
  8
0
  6
CONTINUOUS
 62
     7
  5
1F3
 10
-6259.442394
 20
-4049.595132
 30
0.0
 70
    16
  0
VERTEX
  8
0
  6
CONTINUOUS
 62
     7
  5
1F4
 10
-6259.28992
 20
-4049.50141
 30
0.0
 70
    16
  0
VERTEX
  8
0
  6
CONTINUOUS
 62
     7
  5
1F5
 10
-6259.146286
 20
-4049.37897
 30
0.0
 70
    16
  0
VERTEX
  8
0
  6
CONTINUOUS
 62
     7
  5
1F6
 10
-6259.01639
 20
-4049.226571
 30
0.0
 70
    16
  0
VERTEX
  8
0
  6
CONTINUOUS
 62
     7
  5
1F7
 10
-6258.906156
 20
-4049.045592
 30
0.0
 70
    16
  0
VERTEX
  8
0
  6
CONTINUOUS
 62
     7
  5
1F8
 10
-6258.819908
 20
-4048.836392
 30
0.0
 70
    16
  0
VERTEX
  8
0
  6
CONTINUOUS
 62
     7
  5
1F9
 10
-6258.782863
 20
-4048.684468
 30
0.0
 70
    16
  0
VERTEX
  8
0
  6
CONTINUOUS
 62
     7
  5
1FA
 10
-6258.768986
 20
-4048.604438
 30
0.0
 70
    16
  0
SEQEND
  8
0
  6
CONTINUOUS
 62
     7
  5
1FB
  0
POLYLINE
  8
0
  6
CONTINUOUS
 62
     7
  5
1FC
 66
     1
 10
0.0
 20
0.0
 30
0.0
 70
     4
 75
     6
  0
VERTEX
  8
0
  6
CONTINUOUS
 62
     7
  5
1FD
 10
-6258.744888
 20
-4048.413052
 30
0.0
 70
    16
  0
VERTEX
  8
0
  6
CONTINUOUS
 62
     7
  5
1FE
 10
-6258.744888
 20
-4048.413052
 30
0.0
 70
     8
  0
VERTEX
  8
0
  6
CONTINUOUS
 62
     7
  5
1FF
 10
-6258.745197
 20
-4048.413054
 30
0.0
 70
     8
  0
VERTEX
  8
0
  6
CONTINUOUS
 62
     7
  5
200
 10
-6258.7455
 20
-4048.413066
 30
0.0
 70
     8
  0
VERTEX
  8
0
  6
CONTINUOUS
 62
     7
  5
201
 10
-6258.745791
 20
-4048.413098
 30
0.0
 70
     8
  0
VERTEX
  8
0
  6
CONTINUOUS
 62
     7
  5
202
 10
-6258.746064
 20
-4048.413161
 30
0.0
 70
     8
  0
VERTEX
  8
0
  6
CONTINUOUS
 62
     7
  5
203
 10
-6258.746313
 20
-4048.413266
 30
0.0
 70
     8
  0
VERTEX
  8
0
  6
CONTINUOUS
 62
     7
  5
204
 10
-6258.746532
 20
-4048.413421
 30
0.0
 70
     8
  0
VERTEX
  8
0
  6
CONTINUOUS
 62
     7
  5
205
 10
-6258.746715
 20
-4048.413638
 30
0.0
 70
     8
  0
VERTEX
  8
0
  6
CONTINUOUS
 62
     7
  5
206
 10
-6258.746856
 20
-4048.413926
 30
0.0
 70
     8
  0
VERTEX
  8
0
  6
CONTINUOUS
 62
     7
  5
207
 10
-6258.746948
 20
-4048.414296
 30
0.0
 70
     8
  0
VERTEX
  8
0
  6
CONTINUOUS
 62
     7
  5
208
 10
-6258.746987
 20
-4048.414759
 30
0.0
 70
     8
  0
VERTEX
  8
0
  6
CONTINUOUS
 62
     7
  5
209
 10
-6258.746969
 20
-4048.41532
 30
0.0
 70
     8
  0
VERTEX
  8
0
  6
CONTINUOUS
 62
     7
  5
20A
 10
-6258.746899
 20
-4048.41597
 30
0.0
 70
     8
  0
VERTEX
  8
0
  6
CONTINUOUS
 62
     7
  5
20B
 10
-6258.746786
 20
-4048.416697
 30
0.0
 70
     8
  0
VERTEX
  8
0
  6
CONTINUOUS
 62
     7
  5
20C
 10
-6258.746638
 20
-4048.417486
 30
0.0
 70
     8
  0
VERTEX
  8
0
  6
CONTINUOUS
 62
     7
  5
20D
 10
-6258.746465
 20
-4048.418325
 30
0.0
 70
     8
  0
VERTEX
  8
0
  6
CONTINUOUS
 62
     7
  5
20E
 10
-6258.746275
 20
-4048.419201
 30
0.0
 70
     8
  0
VERTEX
  8
0
  6
CONTINUOUS
 62
     7
  5
20F
 10
-6258.746077
 20
-4048.420101
 30
0.0
 70
     8
  0
VERTEX
  8
0
  6
CONTINUOUS
 62
     7
  5
210
 10
-6258.745878
 20
-4048.421011
 30
0.0
 70
     8
  0
VERTEX
  8
0
  6
CONTINUOUS
 62
     7
  5
211
 10
-6258.745688
 20
-4048.421918
 30
0.0
 70
     8
  0
VERTEX
  8
0
  6
CONTINUOUS
 62
     7
  5
212
 10
-6258.745515
 20
-4048.42281
 30
0.0
 70
     8
  0
VERTEX
  8
0
  6
CONTINUOUS
 62
     7
  5
213
 10
-6258.745367
 20
-4048.423675
 30
0.0
 70
     8
  0
VERTEX
  8
0
  6
CONTINUOUS
 62
     7
  5
214
 10
-6258.745242
 20
-4048.424509
 30
0.0
 70
     8
  0
VERTEX
  8
0
  6
CONTINUOUS
 62
     7
  5
215
 10
-6258.745138
 20
-4048.425313
 30
0.0
 70
     8
  0
VERTEX
  8
0
  6
CONTINUOUS
 62
     7
  5
216
 10
-6258.745055
 20
-4048.426084
 30
0.0
 70
     8
  0
VERTEX
  8
0
  6
CONTINUOUS
 62
     7
  5
217
 10
-6258.744989
 20
-4048.426822
 30
0.0
 70
     8
  0
VERTEX
  8
0
  6
CONTINUOUS
 62
     7
  5
218
 10
-6258.744939
 20
-4048.427525
 30
0.0
 70
     8
  0
VERTEX
  8
0
  6
CONTINUOUS
 62
     7
  5
219
 10
-6258.744902
 20
-4048.428193
 30
0.0
 70
     8
  0
VERTEX
  8
0
  6
CONTINUOUS
 62
     7
  5
21A
 10
-6258.744877
 20
-4048.428824
 30
0.0
 70
     8
  0
VERTEX
  8
0
  6
CONTINUOUS
 62
     7
  5
21B
 10
-6258.744861
 20
-4048.429417
 30
0.0
 70
     8
  0
VERTEX
  8
0
  6
CONTINUOUS
 62
     7
  5
21C
 10
-6258.744853
 20
-4048.429972
 30
0.0
 70
     8
  0
VERTEX
  8
0
  6
CONTINUOUS
 62
     7
  5
21D
 10
-6258.744851
 20
-4048.430487
 30
0.0
 70
     8
  0
VERTEX
  8
0
  6
CONTINUOUS
 62
     7
  5
21E
 10
-6258.744853
 20
-4048.430966
 30
0.0
 70
     8
  0
VERTEX
  8
0
  6
CONTINUOUS
 62
     7
  5
21F
 10
-6258.74486
 20
-4048.431414
 30
0.0
 70
     8
  0
VERTEX
  8
0
  6
CONTINUOUS
 62
     7
  5
220
 10
-6258.744871
 20
-4048.431833
 30
0.0
 70
     8
  0
VERTEX
  8
0
  6
CONTINUOUS
 62
     7
  5
221
 10
-6258.744885
 20
-4048.432228
 30
0.0
 70
     8
  0
VERTEX
  8
0
  6
CONTINUOUS
 62
     7
  5
222
 10
-6258.744902
 20
-4048.432604
 30
0.0
 70
     8
  0
VERTEX
  8
0
  6
CONTINUOUS
 62
     7
  5
223
 10
-6258.74492
 20
-4048.432963
 30
0.0
 70
     8
  0
VERTEX
  8
0
  6
CONTINUOUS
 62
     7
  5
224
 10
-6258.744941
 20
-4048.433311
 30
0.0
 70
     8
  0
VERTEX
  8
0
  6
CONTINUOUS
 62
     7
  5
225
 10
-6258.744963
 20
-4048.43365
 30
0.0
 70
     8
  0
VERTEX
  8
0
  6
CONTINUOUS
 62
     7
  5
226
 10
-6258.744985
 20
-4048.433985
 30
0.0
 70
     8
  0
VERTEX
  8
0
  6
CONTINUOUS
 62
     7
  5
227
 10
-6258.747988
 20
-4048.413052
 30
0.0
 70
    16
  0
VERTEX
  8
0
  6
CONTINUOUS
 62
     7
  5
228
 10
-6258.745085
 20
-4048.423292
 30
0.0
 70
    16
  0
VERTEX
  8
0
  6
CONTINUOUS
 62
     7
  5
229
 10
-6258.744762
 20
-4048.430638
 30
0.0
 70
    16
  0
VERTEX
  8
0
  6
CONTINUOUS
 62
     7
  5
22A
 10
-6258.744985
 20
-4048.433985
 30
0.0
 70
    16
  0
SEQEND
  8
0
  6
CONTINUOUS
 62
     7
  5
22B
  0
POLYLINE
  8
0
  6
CONTINUOUS
 62
     7
  5
22C
 66
     1
 10
0.0
 20
0.0
 30
0.0
 70
     4
 72
 12920
 75
     6
  0
VERTEX
  8
0
  6
CONTINUOUS
 62
     7
  5
22D
 10
-6258.744985
 20
-4048.433985
 30
0.0
 70
    16
  0
VERTEX
  8
0
  6
CONTINUOUS
 62
     7
  5
22E
 10
-6258.744985
 20
-4048.433985
 30
0.0
 70
     8
  0
VERTEX
  8
0
  6
CONTINUOUS
 62
     7
  5
22F
 10
-6258.745025
 20
-4048.434584
 30
0.0
 70
     8
  0
VERTEX
  8
0
  6
CONTINUOUS
 62
     7
  5
230
 10
-6258.745071
 20
-4048.435193
 30
0.0
 70
     8
  0
VERTEX
  8
0
  6
CONTINUOUS
 62
     7
  5
231
 10
-6258.745127
 20
-4048.43582
 30
0.0
 70
     8
  0
VERTEX
  8
0
  6
CONTINUOUS
 62
     7
  5
232
 10
-6258.745198
 20
-4048.436477
 30
0.0
 70
     8
  0
VERTEX
  8
0
  6
CONTINUOUS
 62
     7
  5
233
 10
-6258.74529
 20
-4048.437172
 30
0.0
 70
     8
  0
VERTEX
  8
0
  6
CONTINUOUS
 62
     7
  5
234
 10
-6258.745408
 20
-4048.437914
 30
0.0
 70
     8
  0
VERTEX
  8
0
  6
CONTINUOUS
 62
     7
  5
235
 10
-6258.745556
 20
-4048.438714
 30
0.0
 70
     8
  0
VERTEX
  8
0
  6
CONTINUOUS
 62
     7
  5
236
 10
-6258.74574
 20
-4048.439581
 30
0.0
 70
     8
  0
VERTEX
  8
0
  6
CONTINUOUS
 62
     7
  5
237
 10
-6258.745966
 20
-4048.440525
 30
0.0
 70
     8
  0
VERTEX
  8
0
  6
CONTINUOUS
 62
     7
  5
238
 10
-6258.746237
 20
-4048.441555
 30
0.0
 70
     8
  0
VERTEX
  8
0
  6
CONTINUOUS
 62
     7
  5
239
 10
-6258.746558
 20
-4048.442682
 30
0.0
 70
     8
  0
VERTEX
  8
0
  6
CONTINUOUS
 62
     7
  5
23A
 10
-6258.74692
 20
-4048.443921
 30
0.0
 70
     8
  0
VERTEX
  8
0
  6
CONTINUOUS
 62
     7
  5
23B
 10
-6258.747315
 20
-4048.445287
 30
0.0
 70
     8
  0
VERTEX
  8
0
  6
CONTINUOUS
 62
     7
  5
23C
 10
-6258.747732
 20
-4048.446797
 30
0.0
 70
     8
  0
VERTEX
  8
0
  6
CONTINUOUS
 62
     7
  5
23D
 10
-6258.748161
 20
-4048.448467
 30
0.0
 70
     8
  0
VERTEX
  8
0
  6
CONTINUOUS
 62
     7
  5
23E
 10
-6258.748594
 20
-4048.450311
 30
0.0
 70
     8
  0
VERTEX
  8
0
  6
CONTINUOUS
 62
     7
  5
23F
 10
-6258.74902
 20
-4048.452347
 30
0.0
 70
     8
  0
VERTEX
  8
0
  6
CONTINUOUS
 62
     7
  5
240
 10
-6258.749431
 20
-4048.454591
 30
0.0
 70
     8
  0
VERTEX
  8
0
  6
CONTINUOUS
 62
     7
  5
241
 10
-6258.749815
 20
-4048.457057
 30
0.0
 70
     8
  0
VERTEX
  8
0
  6
CONTINUOUS
 62
     7
  5
242
 10
-6258.750164
 20
-4048.459763
 30
0.0
 70
     8
  0
VERTEX
  8
0
  6
CONTINUOUS
 62
     7
  5
243
 10
-6258.750472
 20
-4048.462718
 30
0.0
 70
     8
  0
VERTEX
  8
0
  6
CONTINUOUS
 62
     7
  5
244
 10
-6258.750746
 20
-4048.465912
 30
0.0
 70
     8
  0
VERTEX
  8
0
  6
CONTINUOUS
 62
     7
  5
245
 10
-6258.750998
 20
-4048.469329
 30
0.0
 70
     8
  0
VERTEX
  8
0
  6
CONTINUOUS
 62
     7
  5
246
 10
-6258.75124
 20
-4048.472951
 30
0.0
 70
     8
  0
VERTEX
  8
0
  6
CONTINUOUS
 62
     7
  5
247
 10
-6258.751482
 20
-4048.476763
 30
0.0
 70
     8
  0
VERTEX
  8
0
  6
CONTINUOUS
 62
     7
  5
248
 10
-6258.751736
 20
-4048.480748
 30
0.0
 70
     8
  0
VERTEX
  8
0
  6
CONTINUOUS
 62
     7
  5
249
 10
-6258.752014
 20
-4048.48489
 30
0.0
 70
     8
  0
VERTEX
  8
0
  6
CONTINUOUS
 62
     7
  5
24A
 10
-6258.752327
 20
-4048.489173
 30
0.0
 70
     8
  0
VERTEX
  8
0
  6
CONTINUOUS
 62
     7
  5
24B
 10
-6258.752686
 20
-4048.49358
 30
0.0
 70
     8
  0
VERTEX
  8
0
  6
CONTINUOUS
 62
     7
  5
24C
 10
-6258.753103
 20
-4048.498095
 30
0.0
 70
     8
  0
VERTEX
  8
0
  6
CONTINUOUS
 62
     7
  5
24D
 10
-6258.753587
 20
-4048.5027
 30
0.0
 70
     8
  0
VERTEX
  8
0
  6
CONTINUOUS
 62
     7
  5
24E
 10
-6258.75413
 20
-4048.507376
 30
0.0
 70
     8
  0
VERTEX
  8
0
  6
CONTINUOUS
 62
     7
  5
24F
 10
-6258.754724
 20
-4048.5121
 30
0.0
 70
     8
  0
VERTEX
  8
0
  6
CONTINUOUS
 62
     7
  5
250
 10
-6258.75536
 20
-4048.516852
 30
0.0
 70
     8
  0
VERTEX
  8
0
  6
CONTINUOUS
 62
     7
  5
251
 10
-6258.756029
 20
-4048.52161
 30
0.0
 70
     8
  0
VERTEX
  8
0
  6
CONTINUOUS
 62
     7
  5
252
 10
-6258.75672
 20
-4048.526353
 30
0.0
 70
     8
  0
VERTEX
  8
0
  6
CONTINUOUS
 62
     7
  5
253
 10
-6258.757425
 20
-4048.531058
 30
0.0
 70
     8
  0
VERTEX
  8
0
  6
CONTINUOUS
 62
     7
  5
254
 10
-6258.758135
 20
-4048.535706
 30
0.0
 70
     8
  0
VERTEX
  8
0
  6
CONTINUOUS
 62
     7
  5
255
 10
-6258.758841
 20
-4048.540274
 30
0.0
 70
     8
  0
VERTEX
  8
0
  6
CONTINUOUS
 62
     7
  5
256
 10
-6258.759532
 20
-4048.544741
 30
0.0
 70
     8
  0
VERTEX
  8
0
  6
CONTINUOUS
 62
     7
  5
257
 10
-6258.760202
 20
-4048.549088
 30
0.0
 70
     8
  0
VERTEX
  8
0
  6
CONTINUOUS
 62
     7
  5
258
 10
-6258.760848
 20
-4048.553306
 30
0.0
 70
     8
  0
VERTEX
  8
0
  6
CONTINUOUS
 62
     7
  5
259
 10
-6258.761472
 20
-4048.55739
 30
0.0
 70
     8
  0
VERTEX
  8
0
  6
CONTINUOUS
 62
     7
  5
25A
 10
-6258.762073
 20
-4048.561334
 30
0.0
 70
     8
  0
VERTEX
  8
0
  6
CONTINUOUS
 62
     7
  5
25B
 10
-6258.762651
 20
-4048.565131
 30
0.0
 70
     8
  0
VERTEX
  8
0
  6
CONTINUOUS
 62
     7
  5
25C
 10
-6258.763206
 20
-4048.568776
 30
0.0
 70
     8
  0
VERTEX
  8
0
  6
CONTINUOUS
 62
     7
  5
25D
 10
-6258.763738
 20
-4048.572261
 30
0.0
 70
     8
  0
VERTEX
  8
0
  6
CONTINUOUS
 62
     7
  5
25E
 10
-6258.764248
 20
-4048.575582
 30
0.0
 70
     8
  0
VERTEX
  8
0
  6
CONTINUOUS
 62
     7
  5
25F
 10
-6258.764735
 20
-4048.578732
 30
0.0
 70
     8
  0
VERTEX
  8
0
  6
CONTINUOUS
 62
     7
  5
260
 10
-6258.7652
 20
-4048.581706
 30
0.0
 70
     8
  0
VERTEX
  8
0
  6
CONTINUOUS
 62
     7
  5
261
 10
-6258.765642
 20
-4048.5845
 30
0.0
 70
     8
  0
VERTEX
  8
0
  6
CONTINUOUS
 62
     7
  5
262
 10
-6258.766065
 20
-4048.58713
 30
0.0
 70
     8
  0
VERTEX
  8
0
  6
CONTINUOUS
 62
     7
  5
263
 10
-6258.766469
 20
-4048.589614
 30
0.0
 70
     8
  0
VERTEX
  8
0
  6
CONTINUOUS
 62
     7
  5
264
 10
-6258.766858
 20
-4048.591969
 30
0.0
 70
     8
  0
VERTEX
  8
0
  6
CONTINUOUS
 62
     7
  5
265
 10
-6258.767233
 20
-4048.594215
 30
0.0
 70
     8
  0
VERTEX
  8
0
  6
CONTINUOUS
 62
     7
  5
266
 10
-6258.767597
 20
-4048.596369
 30
0.0
 70
     8
  0
VERTEX
  8
0
  6
CONTINUOUS
 62
     7
  5
267
 10
-6258.767953
 20
-4048.59845
 30
0.0
 70
     8
  0
VERTEX
  8
0
  6
CONTINUOUS
 62
     7
  5
268
 10
-6258.768301
 20
-4048.600476
 30
0.0
 70
     8
  0
VERTEX
  8
0
  6
CONTINUOUS
 62
     7
  5
269
 10
-6258.768645
 20
-4048.602466
 30
0.0
 70
     8
  0
VERTEX
  8
0
  6
CONTINUOUS
 62
     7
  5
26A
 10
-6258.768987
 20
-4048.604437
 30
0.0
 70
     8
  0
VERTEX
  8
0
  6
CONTINUOUS
 62
     7
  5
26B
 10
-6258.745381
 20
-4048.439958
 30
0.0
 70
    16
  0
VERTEX
  8
0
  6
CONTINUOUS
 62
     7
  5
26C
 10
-6258.750915
 20
-4048.455513
 30
0.0
 70
    16
  0
VERTEX
  8
0
  6
CONTINUOUS
 62
     7
  5
26D
 10
-6258.751947
 20
-4048.496569
 30
0.0
 70
    16
  0
VERTEX
  8
0
  6
CONTINUOUS
 62
     7
  5
26E
 10
-6258.759918
 20
-4048.54678
 30
0.0
 70
    16
  0
VERTEX
  8
0
  6
CONTINUOUS
 62
     7
  5
26F
 10
-6258.765574
 20
-4048.584754
 30
0.0
 70
    16
  0
VERTEX
  8
0
  6
CONTINUOUS
 62
     7
  5
270
 10
-6258.768987
 20
-4048.604437
 30
0.0
 70
    16
  0
SEQEND
  8
0
  6
CONTINUOUS
 62
     7
  5
271
  0
POLYLINE
  8
0
  6
CONTINUOUS
 62
     7
  5
272
 66
     1
 10
0.0
 20
0.0
 30
0.0
 70
     4
 75
     6
  0
VERTEX
  8
0
  6
CONTINUOUS
 62
     7
  5
273
 10
-6260.645137
 20
-4050.081668
 30
0.0
 70
    16
  0
VERTEX
  8
0
  6
CONTINUOUS
 62
     7
  5
274
 10
-6260.645137
 20
-4050.081668
 30
0.0
 70
     8
  0
VERTEX
  8
0
  6
CONTINUOUS
 62
     7
  5
275
 10
-6260.645139
 20
-4050.077069
 30
0.0
 70
     8
  0
VERTEX
  8
0
  6
CONTINUOUS
 62
     7
  5
276
 10
-6260.645154
 20
-4050.072423
 30
0.0
 70
     8
  0
VERTEX
  8
0
  6
CONTINUOUS
 62
     7
  5
277
 10
-6260.645194
 20
-4050.067687
 30
0.0
 70
     8
  0
VERTEX
  8
0
  6
CONTINUOUS
 62
     7
  5
278
 10
-6260.645272
 20
-4050.062814
 30
0.0
 70
     8
  0
VERTEX
  8
0
  6
CONTINUOUS
 62
     7
  5
279
 10
-6260.645401
 20
-4050.057758
 30
0.0
 70
     8
  0
VERTEX
  8
0
  6
CONTINUOUS
 62
     7
  5
27A
 10
-6260.645594
 20
-4050.052476
 30
0.0
 70
     8
  0
VERTEX
  8
0
  6
CONTINUOUS
 62
     7
  5
27B
 10
-6260.645863
 20
-4050.046919
 30
0.0
 70
     8
  0
VERTEX
  8
0
  6
CONTINUOUS
 62
     7
  5
27C
 10
-6260.64622
 20
-4050.041044
 30
0.0
 70
     8
  0
VERTEX
  8
0
  6
CONTINUOUS
 62
     7
  5
27D
 10
-6260.646679
 20
-4050.034805
 30
0.0
 70
     8
  0
VERTEX
  8
0
  6
CONTINUOUS
 62
     7
  5
27E
 10
-6260.647253
 20
-4050.028156
 30
0.0
 70
     8
  0
VERTEX
  8
0
  6
CONTINUOUS
 62
     7
  5
27F
 10
-6260.647956
 20
-4050.021061
 30
0.0
 70
     8
  0
VERTEX
  8
0
  6
CONTINUOUS
 62
     7
  5
280
 10
-6260.648816
 20
-4050.01352
 30
0.0
 70
     8
  0
VERTEX
  8
0
  6
CONTINUOUS
 62
     7
  5
281
 10
-6260.649864
 20
-4050.005544
 30
0.0
 70
     8
  0
VERTEX
  8
0
  6
CONTINUOUS
 62
     7
  5
282
 10
-6260.651129
 20
-4049.997144
 30
0.0
 70
     8
  0
VERTEX
  8
0
  6
CONTINUOUS
 62
     7
  5
283
 10
-6260.652641
 20
-4049.988328
 30
0.0
 70
     8
  0
VERTEX
  8
0
  6
CONTINUOUS
 62
     7
  5
284
 10
-6260.65443
 20
-4049.979107
 30
0.0
 70
     8
  0
VERTEX
  8
0
  6
CONTINUOUS
 62
     7
  5
285
 10
-6260.656527
 20
-4049.969491
 30
0.0
 70
     8
  0
VERTEX
  8
0
  6
CONTINUOUS
 62
     7
  5
286
 10
-6260.658962
 20
-4049.959491
 30
0.0
 70
     8
  0
VERTEX
  8
0
  6
CONTINUOUS
 62
     7
  5
287
 10
-6260.661764
 20
-4049.949115
 30
0.0
 70
     8
  0
VERTEX
  8
0
  6
CONTINUOUS
 62
     7
  5
288
 10
-6260.664965
 20
-4049.938376
 30
0.0
 70
     8
  0
VERTEX
  8
0
  6
CONTINUOUS
 62
     7
  5
289
 10
-6260.668586
 20
-4049.927289
 30
0.0
 70
     8
  0
VERTEX
  8
0
  6
CONTINUOUS
 62
     7
  5
28A
 10
-6260.672627
 20
-4049.915901
 30
0.0
 70
     8
  0
VERTEX
  8
0
  6
CONTINUOUS
 62
     7
  5
28B
 10
-6260.677076
 20
-4049.904266
 30
0.0
 70
     8
  0
VERTEX
  8
0
  6
CONTINUOUS
 62
     7
  5
28C
 10
-6260.681926
 20
-4049.892437
 30
0.0
 70
     8
  0
VERTEX
  8
0
  6
CONTINUOUS
 62
     7
  5
28D
 10
-6260.687166
 20
-4049.880468
 30
0.0
 70
     8
  0
VERTEX
  8
0
  6
CONTINUOUS
 62
     7
  5
28E
 10
-6260.692787
 20
-4049.868413
 30
0.0
 70
     8
  0
VERTEX
  8
0
  6
CONTINUOUS
 62
     7
  5
28F
 10
-6260.698781
 20
-4049.856325
 30
0.0
 70
     8
  0
VERTEX
  8
0
  6
CONTINUOUS
 62
     7
  5
290
 10
-6260.705137
 20
-4049.844258
 30
0.0
 70
     8
  0
VERTEX
  8
0
  6
CONTINUOUS
 62
     7
  5
291
 10
-6260.711846
 20
-4049.832265
 30
0.0
 70
     8
  0
VERTEX
  8
0
  6
CONTINUOUS
 62
     7
  5
292
 10
-6260.7189
 20
-4049.8204
 30
0.0
 70
     8
  0
VERTEX
  8
0
  6
CONTINUOUS
 62
     7
  5
293
 10
-6260.726289
 20
-4049.808709
 30
0.0
 70
     8
  0
VERTEX
  8
0
  6
CONTINUOUS
 62
     7
  5
294
 10
-6260.73401
 20
-4049.797208
 30
0.0
 70
     8
  0
VERTEX
  8
0
  6
CONTINUOUS
 62
     7
  5
295
 10
-6260.74206
 20
-4049.785905
 30
0.0
 70
     8
  0
VERTEX
  8
0
  6
CONTINUOUS
 62
     7
  5
296
 10
-6260.750436
 20
-4049.774808
 30
0.0
 70
     8
  0
VERTEX
  8
0
  6
CONTINUOUS
 62
     7
  5
297
 10
-6260.759136
 20
-4049.763926
 30
0.0
 70
     8
  0
VERTEX
  8
0
  6
CONTINUOUS
 62
     7
  5
298
 10
-6260.768156
 20
-4049.753266
 30
0.0
 70
     8
  0
VERTEX
  8
0
  6
CONTINUOUS
 62
     7
  5
299
 10
-6260.777494
 20
-4049.742837
 30
0.0
 70
     8
  0
VERTEX
  8
0
  6
CONTINUOUS
 62
     7
  5
29A
 10
-6260.787147
 20
-4049.732647
 30
0.0
 70
     8
  0
VERTEX
  8
0
  6
CONTINUOUS
 62
     7
  5
29B
 10
-6260.797112
 20
-4049.722704
 30
0.0
 70
     8
  0
VERTEX
  8
0
  6
CONTINUOUS
 62
     7
  5
29C
 10
-6260.807387
 20
-4049.713017
 30
0.0
 70
     8
  0
VERTEX
  8
0
  6
CONTINUOUS
 62
     7
  5
29D
 10
-6260.817963
 20
-4049.703595
 30
0.0
 70
     8
  0
VERTEX
  8
0
  6
CONTINUOUS
 62
     7
  5
29E
 10
-6260.828808
 20
-4049.694456
 30
0.0
 70
     8
  0
VERTEX
  8
0
  6
CONTINUOUS
 62
     7
  5
29F
 10
-6260.839886
 20
-4049.68562
 30
0.0
 70
     8
  0
VERTEX
  8
0
  6
CONTINUOUS
 62
     7
  5
2A0
 10
-6260.851161
 20
-4049.677107
 30
0.0
 70
     8
  0
VERTEX
  8
0
  6
CONTINUOUS
 62
     7
  5
2A1
 10
-6260.862595
 20
-4049.668936
 30
0.0
 70
     8
  0
VERTEX
  8
0
  6
CONTINUOUS
 62
     7
  5
2A2
 10
-6260.874151
 20
-4049.661127
 30
0.0
 70
     8
  0
VERTEX
  8
0
  6
CONTINUOUS
 62
     7
  5
2A3
 10
-6260.885794
 20
-4049.6537
 30
0.0
 70
     8
  0
VERTEX
  8
0
  6
CONTINUOUS
 62
     7
  5
2A4
 10
-6260.897485
 20
-4049.646674
 30
0.0
 70
     8
  0
VERTEX
  8
0
  6
CONTINUOUS
 62
     7
  5
2A5
 10
-6260.909189
 20
-4049.640069
 30
0.0
 70
     8
  0
VERTEX
  8
0
  6
CONTINUOUS
 62
     7
  5
2A6
 10
-6260.920868
 20
-4049.633905
 30
0.0
 70
     8
  0
VERTEX
  8
0
  6
CONTINUOUS
 62
     7
  5
2A7
 10
-6260.932485
 20
-4049.628195
 30
0.0
 70
     8
  0
VERTEX
  8
0
  6
CONTINUOUS
 62
     7
  5
2A8
 10
-6260.944003
 20
-4049.622928
 30
0.0
 70
     8
  0
VERTEX
  8
0
  6
CONTINUOUS
 62
     7
  5
2A9
 10
-6260.955385
 20
-4049.618089
 30
0.0
 70
     8
  0
VERTEX
  8
0
  6
CONTINUOUS
 62
     7
  5
2AA
 10
-6260.966593
 20
-4049.61366
 30
0.0
 70
     8
  0
VERTEX
  8
0
  6
CONTINUOUS
 62
     7
  5
2AB
 10
-6260.977588
 20
-4049.609624
 30
0.0
 70
     8
  0
VERTEX
  8
0
  6
CONTINUOUS
 62
     7
  5
2AC
 10
-6260.988334
 20
-4049.605965
 30
0.0
 70
     8
  0
VERTEX
  8
0
  6
CONTINUOUS
 62
     7
  5
2AD
 10
-6260.998793
 20
-4049.602667
 30
0.0
 70
     8
  0
VERTEX
  8
0
  6
CONTINUOUS
 62
     7
  5
2AE
 10
-6261.008926
 20
-4049.599712
 30
0.0
 70
     8
  0
VERTEX
  8
0
  6
CONTINUOUS
 62
     7
  5
2AF
 10
-6261.018698
 20
-4049.597085
 30
0.0
 70
     8
  0
VERTEX
  8
0
  6
CONTINUOUS
 62
     7
  5
2B0
 10
-6261.028069
 20
-4049.594767
 30
0.0
 70
     8
  0
VERTEX
  8
0
  6
CONTINUOUS
 62
     7
  5
2B1
 10
-6261.037007
 20
-4049.592742
 30
0.0
 70
     8
  0
VERTEX
  8
0
  6
CONTINUOUS
 62
     7
  5
2B2
 10
-6261.045502
 20
-4049.590987
 30
0.0
 70
     8
  0
VERTEX
  8
0
  6
CONTINUOUS
 62
     7
  5
2B3
 10
-6261.053548
 20
-4049.58948
 30
0.0
 70
     8
  0
VERTEX
  8
0
  6
CONTINUOUS
 62
     7
  5
2B4
 10
-6261.061139
 20
-4049.588196
 30
0.0
 70
     8
  0
VERTEX
  8
0
  6
CONTINUOUS
 62
     7
  5
2B5
 10
-6261.068268
 20
-4049.587114
 30
0.0
 70
     8
  0
VERTEX
  8
0
  6
CONTINUOUS
 62
     7
  5
2B6
 10
-6261.074931
 20
-4049.586209
 30
0.0
 70
     8
  0
VERTEX
  8
0
  6
CONTINUOUS
 62
     7
  5
2B7
 10
-6261.081121
 20
-4049.585459
 30
0.0
 70
     8
  0
VERTEX
  8
0
  6
CONTINUOUS
 62
     7
  5
2B8
 10
-6261.086833
 20
-4049.58484
 30
0.0
 70
     8
  0
VERTEX
  8
0
  6
CONTINUOUS
 62
     7
  5
2B9
 10
-6261.092061
 20
-4049.58433
 30
0.0
 70
     8
  0
VERTEX
  8
0
  6
CONTINUOUS
 62
     7
  5
2BA
 10
-6261.096799
 20
-4049.583905
 30
0.0
 70
     8
  0
VERTEX
  8
0
  6
CONTINUOUS
 62
     7
  5
2BB
 10
-6261.101051
 20
-4049.583544
 30
0.0
 70
     8
  0
VERTEX
  8
0
  6
CONTINUOUS
 62
     7
  5
2BC
 10
-6261.104856
 20
-4049.58324
 30
0.0
 70
     8
  0
VERTEX
  8
0
  6
CONTINUOUS
 62
     7
  5
2BD
 10
-6261.108265
 20
-4049.582985
 30
0.0
 70
     8
  0
VERTEX
  8
0
  6
CONTINUOUS
 62
     7
  5
2BE
 10
-6261.111327
 20
-4049.582773
 30
0.0
 70
     8
  0
VERTEX
  8
0
  6
CONTINUOUS
 62
     7
  5
2BF
 10
-6261.114091
 20
-4049.582599
 30
0.0
 70
     8
  0
VERTEX
  8
0
  6
CONTINUOUS
 62
     7
  5
2C0
 10
-6261.116608
 20
-4049.582455
 30
0.0
 70
     8
  0
VERTEX
  8
0
  6
CONTINUOUS
 62
     7
  5
2C1
 10
-6261.118926
 20
-4049.582337
 30
0.0
 70
     8
  0
VERTEX
  8
0
  6
CONTINUOUS
 62
     7
  5
2C2
 10
-6261.121096
 20
-4049.582237
 30
0.0
 70
     8
  0
VERTEX
  8
0
  6
CONTINUOUS
 62
     7
  5
2C3
 10
-6261.123167
 20
-4049.582149
 30
0.0
 70
     8
  0
VERTEX
  8
0
  6
CONTINUOUS
 62
     7
  5
2C4
 10
-6261.125188
 20
-4049.582068
 30
0.0
 70
     8
  0
VERTEX
  8
0
  6
CONTINUOUS
 62
     7
  5
2C5
 10
-6260.645137
 20
-4050.035746
 30
0.0
 70
    16
  0
VERTEX
  8
0
  6
CONTINUOUS
 62
     7
  5
2C6
 10
-6260.657832
 20
-4049.944284
 30
0.0
 70
    16
  0
VERTEX
  8
0
  6
CONTINUOUS
 62
     7
  5
2C7
 10
-6260.713322
 20
-4049.817373
 30
0.0
 70
    16
  0
VERTEX
  8
0
  6
CONTINUOUS
 62
     7
  5
2C8
 10
-6260.802277
 20
-4049.708624
 30
0.0
 70
    16
  0
VERTEX
  8
0
  6
CONTINUOUS
 62
     7
  5
2C9
 10
-6260.921891
 20
-4049.626232
 30
0.0
 70
    16
  0
VERTEX
  8
0
  6
CONTINUOUS
 62
     7
  5
2CA
 10
-6261.035366
 20
-4049.589875
 30
0.0
 70
    16
  0
VERTEX
  8
0
  6
CONTINUOUS
 62
     7
  5
2CB
 10
-6261.10506
 20
-4049.582871
 30
0.0
 70
    16
  0
VERTEX
  8
0
  6
CONTINUOUS
 62
     7
  5
2CC
 10
-6261.125188
 20
-4049.582068
 30
0.0
 70
    16
  0
SEQEND
  8
0
  6
CONTINUOUS
 62
     7
  5
2CD
  0
POLYLINE
  8
0
  6
CONTINUOUS
 62
     7
  5
2CE
 66
     1
 10
0.0
 20
0.0
 30
0.0
 70
     4
 75
     6
  0
VERTEX
  8
0
  6
CONTINUOUS
 62
     7
  5
2CF
 10
-6261.125293
 20
-4049.582062
 30
0.0
 70
    16
  0
VERTEX
  8
0
  6
CONTINUOUS
 62
     7
  5
2D0
 10
-6261.125293
 20
-4049.582062
 30
0.0
 70
     8
  0
VERTEX
  8
0
  6
CONTINUOUS
 62
     7
  5
2D1
 10
-6261.147028
 20
-4049.581199
 30
0.0
 70
     8
  0
VERTEX
  8
0
  6
CONTINUOUS
 62
     7
  5
2D2
 10
-6261.169003
 20
-4049.580326
 30
0.0
 70
     8
  0
VERTEX
  8
0
  6
CONTINUOUS
 62
     7
  5
2D3
 10
-6261.191458
 20
-4049.579434
 30
0.0
 70
     8
  0
VERTEX
  8
0
  6
CONTINUOUS
 62
     7
  5
2D4
 10
-6261.214631
 20
-4049.578513
 30
0.0
 70
     8
  0
VERTEX
  8
0
  6
CONTINUOUS
 62
     7
  5
2D5
 10
-6261.238764
 20
-4049.577555
 30
0.0
 70
     8
  0
VERTEX
  8
0
  6
CONTINUOUS
 62
     7
  5
2D6
 10
-6261.264095
 20
-4049.576549
 30
0.0
 70
     8
  0
VERTEX
  8
0
  6
CONTINUOUS
 62
     7
  5
2D7
 10
-6261.290864
 20
-4049.575485
 30
0.0
 70
     8
  0
VERTEX
  8
0
  6
CONTINUOUS
 62
     7
  5
2D8
 10
-6261.319311
 20
-4049.574355
 30
0.0
 70
     8
  0
VERTEX
  8
0
  6
CONTINUOUS
 62
     7
  5
2D9
 10
-6261.349676
 20
-4049.573149
 30
0.0
 70
     8
  0
VERTEX
  8
0
  6
CONTINUOUS
 62
     7
  5
2DA
 10
-6261.382198
 20
-4049.571857
 30
0.0
 70
     8
  0
VERTEX
  8
0
  6
CONTINUOUS
 62
     7
  5
2DB
 10
-6261.417074
 20
-4049.570472
 30
0.0
 70
     8
  0
VERTEX
  8
0
  6
CONTINUOUS
 62
     7
  5
2DC
 10
-6261.454323
 20
-4049.568993
 30
0.0
 70
     8
  0
VERTEX
  8
0
  6
CONTINUOUS
 62
     7
  5
2DD
 10
-6261.493924
 20
-4049.56742
 30
0.0
 70
     8
  0
VERTEX
  8
0
  6
CONTINUOUS
 62
     7
  5
2DE
 10
-6261.535852
 20
-4049.565755
 30
0.0
 70
     8
  0
VERTEX
  8
0
  6
CONTINUOUS
 62
     7
  5
2DF
 10
-6261.580085
 20
-4049.563998
 30
0.0
 70
     8
  0
VERTEX
  8
0
  6
CONTINUOUS
 62
     7
  5
2E0
 10
-6261.6266
 20
-4049.562151
 30
0.0
 70
     8
  0
VERTEX
  8
0
  6
CONTINUOUS
 62
     7
  5
2E1
 10
-6261.675373
 20
-4049.560214
 30
0.0
 70
     8
  0
VERTEX
  8
0
  6
CONTINUOUS
 62
     7
  5
2E2
 10
-6261.726382
 20
-4049.558189
 30
0.0
 70
     8
  0
VERTEX
  8
0
  6
CONTINUOUS
 62
     7
  5
2E3
 10
-6261.779603
 20
-4049.556075
 30
0.0
 70
     8
  0
VERTEX
  8
0
  6
CONTINUOUS
 62
     7
  5
2E4
 10
-6261.835013
 20
-4049.553875
 30
0.0
 70
     8
  0
VERTEX
  8
0
  6
CONTINUOUS
 62
     7
  5
2E5
 10
-6261.892521
 20
-4049.551592
 30
0.0
 70
     8
  0
VERTEX
  8
0
  6
CONTINUOUS
 62
     7
  5
2E6
 10
-6261.951762
 20
-4049.54924
 30
0.0
 70
     8
  0
VERTEX
  8
0
  6
CONTINUOUS
 62
     7
  5
2E7
 10
-6262.012302
 20
-4049.546837
 30
0.0
 70
     8
  0
VERTEX
  8
0
  6
CONTINUOUS
 62
     7
  5
2E8
 10
-6262.073707
 20
-4049.544399
 30
0.0
 70
     8
  0
VERTEX
  8
0
  6
CONTINUOUS
 62
     7
  5
2E9
 10
-6262.135544
 20
-4049.541944
 30
0.0
 70
     8
  0
VERTEX
  8
0
  6
CONTINUOUS
 62
     7
  5
2EA
 10
-6262.19738
 20
-4049.539489
 30
0.0
 70
     8
  0
VERTEX
  8
0
  6
CONTINUOUS
 62
     7
  5
2EB
 10
-6262.25878
 20
-4049.537052
 30
0.0
 70
     8
  0
VERTEX
  8
0
  6
CONTINUOUS
 62
     7
  5
2EC
 10
-6262.319311
 20
-4049.53465
 30
0.0
 70
     8
  0
VERTEX
  8
0
  6
CONTINUOUS
 62
     7
  5
2ED
 10
-6262.37854
 20
-4049.532299
 30
0.0
 70
     8
  0
VERTEX
  8
0
  6
CONTINUOUS
 62
     7
  5
2EE
 10
-6262.436033
 20
-4049.530017
 30
0.0
 70
     8
  0
VERTEX
  8
0
  6
CONTINUOUS
 62
     7
  5
2EF
 10
-6262.491425
 20
-4049.527818
 30
0.0
 70
     8
  0
VERTEX
  8
0
  6
CONTINUOUS
 62
     7
  5
2F0
 10
-6262.544624
 20
-4049.525707
 30
0.0
 70
     8
  0
VERTEX
  8
0
  6
CONTINUOUS
 62
     7
  5
2F1
 10
-6262.595609
 20
-4049.523684
 30
0.0
 70
     8
  0
VERTEX
  8
0
  6
CONTINUOUS
 62
     7
  5
2F2
 10
-6262.644356
 20
-4049.521749
 30
0.0
 70
     8
  0
VERTEX
  8
0
  6
CONTINUOUS
 62
     7
  5
2F3
 10
-6262.690842
 20
-4049.519905
 30
0.0
 70
     8
  0
VERTEX
  8
0
  6
CONTINUOUS
 62
     7
  5
2F4
 10
-6262.735045
 20
-4049.518151
 30
0.0
 70
     8
  0
VERTEX
  8
0
  6
CONTINUOUS
 62
     7
  5
2F5
 10
-6262.776942
 20
-4049.516488
 30
0.0
 70
     8
  0
VERTEX
  8
0
  6
CONTINUOUS
 62
     7
  5
2F6
 10
-6262.81651
 20
-4049.514918
 30
0.0
 70
     8
  0
VERTEX
  8
0
  6
CONTINUOUS
 62
     7
  5
2F7
 10
-6262.853726
 20
-4049.513442
 30
0.0
 70
     8
  0
VERTEX
  8
0
  6
CONTINUOUS
 62
     7
  5
2F8
 10
-6262.888568
 20
-4049.512059
 30
0.0
 70
     8
  0
VERTEX
  8
0
  6
CONTINUOUS
 62
     7
  5
2F9
 10
-6262.921057
 20
-4049.51077
 30
0.0
 70
     8
  0
VERTEX
  8
0
  6
CONTINUOUS
 62
     7
  5
2FA
 10
-6262.951388
 20
-4049.509567
 30
0.0
 70
     8
  0
VERTEX
  8
0
  6
CONTINUOUS
 62
     7
  5
2FB
 10
-6262.979802
 20
-4049.50844
 30
0.0
 70
     8
  0
VERTEX
  8
0
  6
CONTINUOUS
 62
     7
  5
2FC
 10
-6263.006537
 20
-4049.507379
 30
0.0
 70
     8
  0
VERTEX
  8
0
  6
CONTINUOUS
 62
     7
  5
2FD
 10
-6263.031835
 20
-4049.506376
 30
0.0
 70
     8
  0
VERTEX
  8
0
  6
CONTINUOUS
 62
     7
  5
2FE
 10
-6263.055933
 20
-4049.50542
 30
0.0
 70
     8
  0
VERTEX
  8
0
  6
CONTINUOUS
 62
     7
  5
2FF
 10
-6263.079073
 20
-4049.504502
 30
0.0
 70
     8
  0
VERTEX
  8
0
  6
CONTINUOUS
 62
     7
  5
300
 10
-6263.101494
 20
-4049.503612
 30
0.0
 70
     8
  0
VERTEX
  8
0
  6
CONTINUOUS
 62
     7
  5
301
 10
-6263.123435
 20
-4049.502742
 30
0.0
 70
     8
  0
VERTEX
  8
0
  6
CONTINUOUS
 62
     7
  5
302
 10
-6263.145137
 20
-4049.501881
 30
0.0
 70
     8
  0
VERTEX
  8
0
  6
CONTINUOUS
 62
     7
  5
303
 10
-6261.342246
 20
-4049.573444
 30
0.0
 70
    16
  0
VERTEX
  8
0
  6
CONTINUOUS
 62
     7
  5
304
 10
-6261.798911
 20
-4049.555307
 30
0.0
 70
    16
  0
VERTEX
  8
0
  6
CONTINUOUS
 62
     7
  5
305
 10
-6262.472192
 20
-4049.52858
 30
0.0
 70
    16
  0
VERTEX
  8
0
  6
CONTINUOUS
 62
     7
  5
306
 10
-6262.92852
 20
-4049.510474
 30
0.0
 70
    16
  0
VERTEX
  8
0
  6
CONTINUOUS
 62
     7
  5
307
 10
-6263.145137
 20
-4049.501881
 30
0.0
 70
    16
  0
SEQEND
  8
0
  6
CONTINUOUS
 62
     7
  5
308
  0
LINE
  8
0
  6
CONTINUOUS
 62
     7
  5
309
 10
-6259.43982
 20
-4043.013057
 30
0.0
 11
-6258.73982
 21
-4043.013057
 31
0.0
  0
LINE
  8
0
  6
CONTINUOUS
 62
     7
  5
30A
 10
-6258.73982
 20
-4048.413057
 30
0.0
 11
-6258.73982
 21
-4043.013057
 31
0.0
  0
LINE
  8
1
  6
CONTINUOUS
 62
     5
  5
30B
 10
-6260.145137
 20
-4058.390546
 30
0.0
 11
-6267.645137
 21
-4058.390546
 31
0.0
  0
LINE
  8
1
  6
CONTINUOUS
 62
     5
  5
30C
 10
-6260.145137
 20
-4068.390546
 30
0.0
 11
-6267.645137
 21
-4068.390546
 31
0.0
  0
LINE
  8
0
  6
CONTINUOUS
 62
     7
  5
30D
 10
-6260.145137
 20
-4058.390546
 30
0.0
 11
-6260.145137
 21
-4068.390546
 31
0.0
  0
LINE
  8
0
  6
CONTINUOUS
 62
     7
  5
30E
 10
-6259.645137
 20
-4059.390546
 30
0.0
 11
-6259.645137
 21
-4067.390546
 31
0.0
  0
LINE
  8
1
  6
CONTINUOUS
 62
     5
  5
30F
 10
-6259.645137
 20
-4059.390546
 30
0.0
 11
-6260.145137
 21
-4059.390546
 31
0.0
  0
LINE
  8
1
  6
CONTINUOUS
 62
     5
  5
310
 10
-6259.645137
 20
-4067.390546
 30
0.0
 11
-6260.145137
 21
-4067.390546
 31
0.0
  0
LINE
  8
0
  6
CONTINUOUS
 62
     7
  5
311
 10
-6265.145137
 20
-4039.681889
 30
0.0
 11
-6265.145137
 21
-4058.390546
 31
0.0
  0
LINE
  8
0
  6
CONTINUOUS
 62
     7
  5
312
 10
-6265.145137
 20
-4068.390546
 30
0.0
 11
-6265.145137
 21
-4080.099204
 31
0.0
  0
LINE
  8
0
  6
CONTINUOUS
 62
     7
  5
313
 10
-6263.145137
 20
-4044.484589
 30
0.0
 11
-6263.145137
 21
-4058.390546
 31
0.0
  0
LINE
  8
0
  6
CONTINUOUS
 62
     7
  5
314
 10
-6263.145137
 20
-4068.390546
 30
0.0
 11
-6263.145137
 21
-4074.572354
 31
0.0
  0
LINE
  8
0
  6
CONTINUOUS
 62
     7
  5
315
 10
-6260.645137
 20
-4050.081668
 30
0.0
 11
-6260.645137
 21
-4058.390546
 31
0.0
  0
LINE
  8
0
  6
CONTINUOUS
 62
     7
  5
316
 10
-6260.645137
 20
-4068.390546
 30
0.0
 11
-6260.645137
 21
-4070.728057
 31
0.0
  0
LINE
  8
1
  6
CONTINUOUS
 62
    16
  5
317
 10
-7085.059887
 20
-3455.735497
 30
0.0
 11
-7085.059887
 21
-3458.735497
 31
0.0
  0
LINE
  8
1
  6
CONTINUOUS
 62
    16
  5
318
 10
-6655.059887
 20
-3458.735497
 30
0.0
 11
-7085.059887
 21
-3458.735497
 31
0.0
  0
LINE
  8
1
  6
CONTINUOUS
 62
    16
  5
319
 10
-6655.059887
 20
-3455.735497
 30
0.0
 11
-7085.059887
 21
-3455.735497
 31
0.0
  0
LINE
  8
1
  6
CONTINUOUS
 62
    16
  5
31A
 10
-7054.559887
 20
-3458.735497
 30
0.0
 11
-7054.559887
 21
-3458.985497
 31
0.0
  0
LINE
  8
1
  6
CONTINUOUS
 62
    16
  5
31B
 10
-7054.559887
 20
-3458.735497
 30
0.0
 11
-7084.559887
 21
-3458.735497
 31
0.0
  0
LINE
  8
1
  6
CONTINUOUS
 62
    16
  5
31C
 10
-7067.309887
 20
-3458.985497
 30
0.0
 11
-6672.809887
 21
-3458.985497
 31
0.0
  0
LINE
  8
1
  6
CONTINUOUS
 62
    16
  5
31D
 10
-7067.559887
 20
-3458.735497
 30
0.0
 11
-7067.559887
 21
-3772.735497
 31
0.0
  0
LINE
  8
1
  6
CONTINUOUS
 62
    16
  5
31E
 10
-7084.559887
 20
-3458.735497
 30
0.0
 11
-7084.559887
 21
-3772.735497
 31
0.0
  0
LINE
  8
1
  6
CONTINUOUS
 62
    16
  5
31F
 10
-6655.059887
 20
-3455.735497
 30
0.0
 11
-6655.059887
 21
-3458.735497
 31
0.0
  0
LINE
  8
1
  6
CONTINUOUS
 62
    16
  5
320
 10
-6685.559887
 20
-3458.735497
 30
0.0
 11
-6655.559887
 21
-3458.735497
 31
0.0
  0
LINE
  8
1
  6
CONTINUOUS
 62
    16
  5
321
 10
-6672.809887
 20
-3458.985497
 30
0.0
 11
-6672.809887
 21
-3772.485497
 31
0.0
  0
LINE
  8
1
  6
CONTINUOUS
 62
    16
  5
322
 10
-6672.559887
 20
-3458.735497
 30
0.0
 11
-6672.559887
 21
-3772.735497
 31
0.0
  0
LINE
  8
1
  6
CONTINUOUS
 62
    16
  5
323
 10
-6655.559887
 20
-3458.735497
 30
0.0
 11
-6655.559887
 21
-3772.735497
 31
0.0
  0
CIRCLE
  8
1
  6
CONTINUOUS
 62
    16
  5
324
 10
-7059.560205
 20
-3503.735497
 30
0.0
 40
2.25
  0
ARC
  8
1
  6
CONTINUOUS
 62
    16
  5
325
 10
-7013.809887
 20
-3619.235497
 30
0.0
 40
1.0
 50
90.0
 51
270.0
  0
ARC
  8
1
  6
CONTINUOUS
 62
    16
  5
326
 10
-6985.809887
 20
-3619.235497
 30
0.0
 40
1.0
 50
270.0
 51
90.0
  0
LINE
  8
1
  6
CONTINUOUS
 62
    16
  5
327
 10
-6985.809887
 20
-3620.235497
 30
0.0
 11
-7013.809887
 21
-3620.235497
 31
0.0
  0
LINE
  8
1
  6
CONTINUOUS
 62
    16
  5
328
 10
-6985.809887
 20
-3618.235497
 30
0.0
 11
-7013.809887
 21
-3618.235497
 31
0.0
  0
LINE
  8
1
  6
CONTINUOUS
 62
    16
  5
329
 10
-6985.809887
 20
-3592.235497
 30
0.0
 11
-7013.809887
 21
-3592.235497
 31
0.0
  0
LINE
  8
1
  6
CONTINUOUS
 62
    16
  5
32A
 10
-6985.809887
 20
-3590.235497
 30
0.0
 11
-7013.809887
 21
-3590.235497
 31
0.0
  0
LINE
  8
1
  6
CONTINUOUS
 62
    16
  5
32B
 10
-6985.809887
 20
-3606.235497
 30
0.0
 11
-7013.809887
 21
-3606.235497
 31
0.0
  0
LINE
  8
1
  6
CONTINUOUS
 62
    16
  5
32C
 10
-6985.809887
 20
-3604.235497
 30
0.0
 11
-7013.809887
 21
-3604.235497
 31
0.0
  0
LINE
  8
1
  6
CONTINUOUS
 62
    16
  5
32D
 10
-6985.809887
 20
-3613.235497
 30
0.0
 11
-7013.809887
 21
-3613.235497
 31
0.0
  0
LINE
  8
1
  6
CONTINUOUS
 62
    16
  5
32E
 10
-6985.809887
 20
-3611.235497
 30
0.0
 11
-7013.809887
 21
-3611.235497
 31
0.0
  0
LINE
  8
1
  6
CONTINUOUS
 62
    16
  5
32F
 10
-6985.809887
 20
-3599.235497
 30
0.0
 11
-7013.809887
 21
-3599.235497
 31
0.0
  0
LINE
  8
1
  6
CONTINUOUS
 62
    16
  5
330
 10
-6985.809887
 20
-3597.235497
 30
0.0
 11
-7013.809887
 21
-3597.235497
 31
0.0
  0
ARC
  8
1
  6
CONTINUOUS
 62
    16
  5
331
 10
-6985.809887
 20
-3605.235497
 30
0.0
 40
1.0
 50
270.0
 51
90.0
  0
ARC
  8
1
  6
CONTINUOUS
 62
    16
  5
332
 10
-6985.809887
 20
-3612.235497
 30
0.0
 40
1.0
 50
270.0
 51
90.0
  0
ARC
  8
1
  6
CONTINUOUS
 62
    16
  5
333
 10
-6985.809887
 20
-3598.235497
 30
0.0
 40
1.0
 50
270.0
 51
90.0
  0
ARC
  8
1
  6
CONTINUOUS
 62
    16
  5
334
 10
-6985.809887
 20
-3591.235497
 30
0.0
 40
1.0
 50
270.0
 51
90.0
  0
ARC
  8
1
  6
CONTINUOUS
 62
    16
  5
335
 10
-7013.809887
 20
-3605.235497
 30
0.0
 40
1.0
 50
90.0
 51
270.0
  0
ARC
  8
1
  6
CONTINUOUS
 62
    16
  5
336
 10
-7013.809887
 20
-3612.235497
 30
0.0
 40
1.0
 50
90.0
 51
270.0
  0
ARC
  8
1
  6
CONTINUOUS
 62
    16
  5
337
 10
-7013.809887
 20
-3598.235497
 30
0.0
 40
1.0
 50
90.0
 51
270.0
  0
ARC
  8
1
  6
CONTINUOUS
 62
    16
  5
338
 10
-7013.809887
 20
-3591.235497
 30
0.0
 40
1.0
 50
90.0
 51
270.0
  0
LINE
  8
1
  6
CONTINUOUS
 62
    16
  5
339
 10
-6985.809887
 20
-3578.235497
 30
0.0
 11
-7013.809887
 21
-3578.235497
 31
0.0
  0
LINE
  8
1
  6
CONTINUOUS
 62
    16
  5
33A
 10
-6985.809887
 20
-3576.235497
 30
0.0
 11
-7013.809887
 21
-3576.235497
 31
0.0
  0
LINE
  8
1
  6
CONTINUOUS
 62
    16
  5
33B
 10
-6985.809887
 20
-3585.235497
 30
0.0
 11
-7013.809887
 21
-3585.235497
 31
0.0
  0
LINE
  8
1
  6
CONTINUOUS
 62
    16
  5
33C
 10
-6985.809887
 20
-3583.235497
 30
0.0
 11
-7013.809887
 21
-3583.235497
 31
0.0
  0
ARC
  8
1
  6
CONTINUOUS
 62
    16
  5
33D
 10
-6985.809887
 20
-3584.235497
 30
0.0
 40
1.0
 50
270.0
 51
90.0
  0
ARC
  8
1
  6
CONTINUOUS
 62
    16
  5
33E
 10
-6985.809887
 20
-3577.235497
 30
0.0
 40
1.0
 50
270.0
 51
90.0
  0
ARC
  8
1
  6
CONTINUOUS
 62
    16
  5
33F
 10
-7013.809887
 20
-3584.235497
 30
0.0
 40
1.0
 50
90.0
 51
270.0
  0
ARC
  8
1
  6
CONTINUOUS
 62
    16
  5
340
 10
-7013.809887
 20
-3577.235497
 30
0.0
 40
1.0
 50
90.0
 51
270.0
  0
ARC
  8
1
  6
CONTINUOUS
 62
    16
  5
341
 10
-7013.809887
 20
-3507.235497
 30
0.0
 40
1.0
 50
90.0
 51
270.0
  0
ARC
  8
1
  6
CONTINUOUS
 62
    16
  5
342
 10
-6985.809887
 20
-3507.235497
 30
0.0
 40
1.0
 50
270.0
 51
90.0
  0
LINE
  8
1
  6
CONTINUOUS
 62
    16
  5
343
 10
-6985.809887
 20
-3508.235497
 30
0.0
 11
-7013.809887
 21
-3508.235497
 31
0.0
  0
LINE
  8
1
  6
CONTINUOUS
 62
    16
  5
344
 10
-6985.809887
 20
-3499.235497
 30
0.0
 11
-7013.809887
 21
-3499.235497
 31
0.0
  0
LINE
  8
1
  6
CONTINUOUS
 62
    16
  5
345
 10
-6985.809887
 20
-3501.235497
 30
0.0
 11
-7013.809887
 21
-3501.235497
 31
0.0
  0
LINE
  8
1
  6
CONTINUOUS
 62
    16
  5
346
 10
-6985.809887
 20
-3492.235497
 30
0.0
 11
-7013.809887
 21
-3492.235497
 31
0.0
  0
LINE
  8
1
  6
CONTINUOUS
 62
    16
  5
347
 10
-6985.809887
 20
-3494.235497
 30
0.0
 11
-7013.809887
 21
-3494.235497
 31
0.0
  0
LINE
  8
1
  6
CONTINUOUS
 62
    16
  5
348
 10
-6985.809887
 20
-3506.235497
 30
0.0
 11
-7013.809887
 21
-3506.235497
 31
0.0
  0
ARC
  8
1
  6
CONTINUOUS
 62
    16
  5
349
 10
-6985.809887
 20
-3500.235497
 30
0.0
 40
1.0
 50
270.0
 51
90.0
  0
ARC
  8
1
  6
CONTINUOUS
 62
    16
  5
34A
 10
-6985.809887
 20
-3493.235497
 30
0.0
 40
1.0
 50
270.0
 51
90.0
  0
ARC
  8
1
  6
CONTINUOUS
 62
    16
  5
34B
 10
-7013.809887
 20
-3500.235497
 30
0.0
 40
1.0
 50
90.0
 51
270.0
  0
ARC
  8
1
  6
CONTINUOUS
 62
    16
  5
34C
 10
-7013.809887
 20
-3493.235497
 30
0.0
 40
1.0
 50
90.0
 51
270.0
  0
LINE
  8
1
  6
CONTINUOUS
 62
    16
  5
34D
 10
-6985.809887
 20
-3513.235497
 30
0.0
 11
-7013.809887
 21
-3513.235497
 31
0.0
  0
LINE
  8
1
  6
CONTINUOUS
 62
    16
  5
34E
 10
-6985.809887
 20
-3515.235497
 30
0.0
 11
-7013.809887
 21
-3515.235497
 31
0.0
  0
LINE
  8
1
  6
CONTINUOUS
 62
    16
  5
34F
 10
-6985.809887
 20
-3527.235497
 30
0.0
 11
-7013.809887
 21
-3527.235497
 31
0.0
  0
LINE
  8
1
  6
CONTINUOUS
 62
    16
  5
350
 10
-6985.809887
 20
-3529.235497
 30
0.0
 11
-7013.809887
 21
-3529.235497
 31
0.0
  0
LINE
  8
1
  6
CONTINUOUS
 62
    16
  5
351
 10
-6985.809887
 20
-3520.235497
 30
0.0
 11
-7013.809887
 21
-3520.235497
 31
0.0
  0
LINE
  8
1
  6
CONTINUOUS
 62
    16
  5
352
 10
-6985.809887
 20
-3522.235497
 30
0.0
 11
-7013.809887
 21
-3522.235497
 31
0.0
  0
ARC
  8
1
  6
CONTINUOUS
 62
    16
  5
353
 10
-6985.809887
 20
-3528.235497
 30
0.0
 40
1.0
 50
270.0
 51
90.0
  0
ARC
  8
1
  6
CONTINUOUS
 62
    16
  5
354
 10
-6985.809887
 20
-3521.235497
 30
0.0
 40
1.0
 50
270.0
 51
90.0
  0
ARC
  8
1
  6
CONTINUOUS
 62
    16
  5
355
 10
-6985.809887
 20
-3514.235497
 30
0.0
 40
1.0
 50
270.0
 51
90.0
  0
ARC
  8
1
  6
CONTINUOUS
 62
    16
  5
356
 10
-7013.809887
 20
-3528.235497
 30
0.0
 40
1.0
 50
90.0
 51
270.0
  0
ARC
  8
1
  6
CONTINUOUS
 62
    16
  5
357
 10
-7013.809887
 20
-3521.235497
 30
0.0
 40
1.0
 50
90.0
 51
270.0
  0
ARC
  8
1
  6
CONTINUOUS
 62
    16
  5
358
 10
-7013.809887
 20
-3514.235497
 30
0.0
 40
1.0
 50
90.0
 51
270.0
  0
ARC
  8
1
  6
CONTINUOUS
 62
    16
  5
359
 10
-7013.809887
 20
-3542.235497
 30
0.0
 40
1.0
 50
90.0
 51
270.0
  0
ARC
  8
1
  6
CONTINUOUS
 62
    16
  5
35A
 10
-6985.809887
 20
-3542.235497
 30
0.0
 40
1.0
 50
270.0
 51
90.0
  0
LINE
  8
1
  6
CONTINUOUS
 62
    16
  5
35B
 10
-6985.809887
 20
-3543.235497
 30
0.0
 11
-7013.809887
 21
-3543.235497
 31
0.0
  0
LINE
  8
1
  6
CONTINUOUS
 62
    16
  5
35C
 10
-6985.809887
 20
-3550.235497
 30
0.0
 11
-7013.809887
 21
-3550.235497
 31
0.0
  0
LINE
  8
1
  6
CONTINUOUS
 62
    16
  5
35D
 10
-6985.809887
 20
-3548.235497
 30
0.0
 11
-7013.809887
 21
-3548.235497
 31
0.0
  0
ARC
  8
1
  6
CONTINUOUS
 62
    16
  5
35E
 10
-6985.809887
 20
-3549.235497
 30
0.0
 40
1.0
 50
270.0
 51
90.0
  0
ARC
  8
1
  6
CONTINUOUS
 62
    16
  5
35F
 10
-7013.809887
 20
-3549.235497
 30
0.0
 40
1.0
 50
90.0
 51
270.0
  0
LINE
  8
1
  6
CONTINUOUS
 62
    16
  5
360
 10
-6985.809887
 20
-3536.235497
 30
0.0
 11
-7013.809887
 21
-3536.235497
 31
0.0
  0
LINE
  8
1
  6
CONTINUOUS
 62
    16
  5
361
 10
-6985.809887
 20
-3534.235497
 30
0.0
 11
-7013.809887
 21
-3534.235497
 31
0.0
  0
LINE
  8
1
  6
CONTINUOUS
 62
    16
  5
362
 10
-6985.809887
 20
-3541.235497
 30
0.0
 11
-7013.809887
 21
-3541.235497
 31
0.0
  0
ARC
  8
1
  6
CONTINUOUS
 62
    16
  5
363
 10
-6985.809887
 20
-3535.235497
 30
0.0
 40
1.0
 50
270.0
 51
90.0
  0
ARC
  8
1
  6
CONTINUOUS
 62
    16
  5
364
 10
-7013.809887
 20
-3535.235497
 30
0.0
 40
1.0
 50
90.0
 51
270.0
  0
LINE
  8
1
  6
CONTINUOUS
 62
    16
  5
365
 10
-6985.809887
 20
-3564.235497
 30
0.0
 11
-7013.809887
 21
-3564.235497
 31
0.0
  0
LINE
  8
1
  6
CONTINUOUS
 62
    16
  5
366
 10
-6985.809887
 20
-3562.235497
 30
0.0
 11
-7013.809887
 21
-3562.235497
 31
0.0
  0
LINE
  8
1
  6
CONTINUOUS
 62
    16
  5
367
 10
-6985.809887
 20
-3571.235497
 30
0.0
 11
-7013.809887
 21
-3571.235497
 31
0.0
  0
LINE
  8
1
  6
CONTINUOUS
 62
    16
  5
368
 10
-6985.809887
 20
-3569.235497
 30
0.0
 11
-7013.809887
 21
-3569.235497
 31
0.0
  0
LINE
  8
1
  6
CONTINUOUS
 62
    16
  5
369
 10
-6985.809887
 20
-3557.235497
 30
0.0
 11
-7013.809887
 21
-3557.235497
 31
0.0
  0
LINE
  8
1
  6
CONTINUOUS
 62
    16
  5
36A
 10
-6985.809887
 20
-3555.235497
 30
0.0
 11
-7013.809887
 21
-3555.235497
 31
0.0
  0
ARC
  8
1
  6
CONTINUOUS
 62
    16
  5
36B
 10
-6985.809887
 20
-3570.235497
 30
0.0
 40
1.0
 50
270.0
 51
90.0
  0
ARC
  8
1
  6
CONTINUOUS
 62
    16
  5
36C
 10
-6985.809887
 20
-3563.235497
 30
0.0
 40
1.0
 50
270.0
 51
90.0
  0
ARC
  8
1
  6
CONTINUOUS
 62
    16
  5
36D
 10
-6985.809887
 20
-3556.235497
 30
0.0
 40
1.0
 50
270.0
 51
90.0
  0
ARC
  8
1
  6
CONTINUOUS
 62
    16
  5
36E
 10
-7013.809887
 20
-3570.235497
 30
0.0
 40
1.0
 50
90.0
 51
270.0
  0
ARC
  8
1
  6
CONTINUOUS
 62
    16
  5
36F
 10
-7013.809887
 20
-3563.235497
 30
0.0
 40
1.0
 50
90.0
 51
270.0
  0
ARC
  8
1
  6
CONTINUOUS
 62
    16
  5
370
 10
-7013.809887
 20
-3556.235497
 30
0.0
 40
1.0
 50
90.0
 51
270.0
  0
CIRCLE
  8
1
  6
CONTINUOUS
 62
    16
  5
371
 10
-6680.559568
 20
-3503.735497
 30
0.0
 40
2.25
  0
LINE
  8
1
  6
CONTINUOUS
 62
    16
  5
372
 10
-6754.309887
 20
-3592.235497
 30
0.0
 11
-6726.309887
 21
-3592.235497
 31
0.0
  0
LINE
  8
1
  6
CONTINUOUS
 62
    16
  5
373
 10
-6754.309887
 20
-3590.235497
 30
0.0
 11
-6726.309887
 21
-3590.235497
 31
0.0
  0
LINE
  8
1
  6
CONTINUOUS
 62
    16
  5
374
 10
-6754.309887
 20
-3606.235497
 30
0.0
 11
-6726.309887
 21
-3606.235497
 31
0.0
  0
LINE
  8
1
  6
CONTINUOUS
 62
    16
  5
375
 10
-6754.309887
 20
-3604.235497
 30
0.0
 11
-6726.309887
 21
-3604.235497
 31
0.0
  0
LINE
  8
1
  6
CONTINUOUS
 62
    16
  5
376
 10
-6754.309887
 20
-3613.235497
 30
0.0
 11
-6726.309887
 21
-3613.235497
 31
0.0
  0
LINE
  8
1
  6
CONTINUOUS
 62
    16
  5
377
 10
-6754.309887
 20
-3611.235497
 30
0.0
 11
-6726.309887
 21
-3611.235497
 31
0.0
  0
LINE
  8
1
  6
CONTINUOUS
 62
    16
  5
378
 10
-6754.309887
 20
-3599.235497
 30
0.0
 11
-6726.309887
 21
-3599.235497
 31
0.0
  0
LINE
  8
1
  6
CONTINUOUS
 62
    16
  5
379
 10
-6754.309887
 20
-3597.235497
 30
0.0
 11
-6726.309887
 21
-3597.235497
 31
0.0
  0
ARC
  8
1
  6
CONTINUOUS
 62
    16
  5
37A
 10
-6754.309887
 20
-3605.235497
 30
0.0
 40
1.0
 50
90.0
 51
270.0
  0
ARC
  8
1
  6
CONTINUOUS
 62
    16
  5
37B
 10
-6754.309887
 20
-3612.235497
 30
0.0
 40
1.0
 50
90.0
 51
270.0
  0
ARC
  8
1
  6
CONTINUOUS
 62
    16
  5
37C
 10
-6754.309887
 20
-3598.235497
 30
0.0
 40
1.0
 50
90.0
 51
270.0
  0
ARC
  8
1
  6
CONTINUOUS
 62
    16
  5
37D
 10
-6754.309887
 20
-3591.235497
 30
0.0
 40
1.0
 50
90.0
 51
270.0
  0
ARC
  8
1
  6
CONTINUOUS
 62
    16
  5
37E
 10
-6726.309887
 20
-3605.235497
 30
0.0
 40
1.0
 50
270.0
 51
90.0
  0
ARC
  8
1
  6
CONTINUOUS
 62
    16
  5
37F
 10
-6726.309887
 20
-3612.235497
 30
0.0
 40
1.0
 50
270.0
 51
90.0
  0
ARC
  8
1
  6
CONTINUOUS
 62
    16
  5
380
 10
-6726.309887
 20
-3598.235497
 30
0.0
 40
1.0
 50
270.0
 51
90.0
  0
ARC
  8
1
  6
CONTINUOUS
 62
    16
  5
381
 10
-6726.309887
 20
-3591.235497
 30
0.0
 40
1.0
 50
270.0
 51
90.0
  0
LINE
  8
1
  6
CONTINUOUS
 62
    16
  5
382
 10
-6754.309887
 20
-3578.235497
 30
0.0
 11
-6726.309887
 21
-3578.235497
 31
0.0
  0
LINE
  8
1
  6
CONTINUOUS
 62
    16
  5
383
 10
-6754.309887
 20
-3576.235497
 30
0.0
 11
-6726.309887
 21
-3576.235497
 31
0.0
  0
LINE
  8
1
  6
CONTINUOUS
 62
    16
  5
384
 10
-6754.309887
 20
-3585.235497
 30
0.0
 11
-6726.309887
 21
-3585.235497
 31
0.0
  0
LINE
  8
1
  6
CONTINUOUS
 62
    16
  5
385
 10
-6754.309887
 20
-3583.235497
 30
0.0
 11
-6726.309887
 21
-3583.235497
 31
0.0
  0
ARC
  8
1
  6
CONTINUOUS
 62
    16
  5
386
 10
-6754.309887
 20
-3584.235497
 30
0.0
 40
1.0
 50
90.0
 51
270.0
  0
ARC
  8
1
  6
CONTINUOUS
 62
    16
  5
387
 10
-6754.309887
 20
-3577.235497
 30
0.0
 40
1.0
 50
90.0
 51
270.0
  0
ARC
  8
1
  6
CONTINUOUS
 62
    16
  5
388
 10
-6726.309887
 20
-3584.235497
 30
0.0
 40
1.0
 50
270.0
 51
90.0
  0
ARC
  8
1
  6
CONTINUOUS
 62
    16
  5
389
 10
-6726.309887
 20
-3577.235497
 30
0.0
 40
1.0
 50
270.0
 51
90.0
  0
ARC
  8
1
  6
CONTINUOUS
 62
    16
  5
38A
 10
-6726.309887
 20
-3507.235497
 30
0.0
 40
1.0
 50
270.0
 51
90.0
  0
ARC
  8
1
  6
CONTINUOUS
 62
    16
  5
38B
 10
-6754.309887
 20
-3507.235497
 30
0.0
 40
1.0
 50
90.0
 51
270.0
  0
LINE
  8
1
  6
CONTINUOUS
 62
    16
  5
38C
 10
-6754.309887
 20
-3508.235497
 30
0.0
 11
-6726.309887
 21
-3508.235497
 31
0.0
  0
LINE
  8
1
  6
CONTINUOUS
 62
    16
  5
38D
 10
-6754.309887
 20
-3499.235497
 30
0.0
 11
-6726.309887
 21
-3499.235497
 31
0.0
  0
LINE
  8
1
  6
CONTINUOUS
 62
    16
  5
38E
 10
-6754.309887
 20
-3501.235497
 30
0.0
 11
-6726.309887
 21
-3501.235497
 31
0.0
  0
LINE
  8
1
  6
CONTINUOUS
 62
    16
  5
38F
 10
-6754.309887
 20
-3492.235497
 30
0.0
 11
-6726.309887
 21
-3492.235497
 31
0.0
  0
LINE
  8
1
  6
CONTINUOUS
 62
    16
  5
390
 10
-6754.309887
 20
-3494.235497
 30
0.0
 11
-6726.309887
 21
-3494.235497
 31
0.0
  0
LINE
  8
1
  6
CONTINUOUS
 62
    16
  5
391
 10
-6754.309887
 20
-3506.235497
 30
0.0
 11
-6726.309887
 21
-3506.235497
 31
0.0
  0
ARC
  8
1
  6
CONTINUOUS
 62
    16
  5
392
 10
-6754.309887
 20
-3500.235497
 30
0.0
 40
1.0
 50
90.0
 51
270.0
  0
ARC
  8
1
  6
CONTINUOUS
 62
    16
  5
393
 10
-6754.309887
 20
-3493.235497
 30
0.0
 40
1.0
 50
90.0
 51
270.0
  0
ARC
  8
1
  6
CONTINUOUS
 62
    16
  5
394
 10
-6726.309887
 20
-3500.235497
 30
0.0
 40
1.0
 50
270.0
 51
90.0
  0
ARC
  8
1
  6
CONTINUOUS
 62
    16
  5
395
 10
-6726.309887
 20
-3493.235497
 30
0.0
 40
1.0
 50
270.0
 51
90.0
  0
LINE
  8
1
  6
CONTINUOUS
 62
    16
  5
396
 10
-6754.309887
 20
-3513.235497
 30
0.0
 11
-6726.309887
 21
-3513.235497
 31
0.0
  0
LINE
  8
1
  6
CONTINUOUS
 62
    16
  5
397
 10
-6754.309887
 20
-3515.235497
 30
0.0
 11
-6726.309887
 21
-3515.235497
 31
0.0
  0
LINE
  8
1
  6
CONTINUOUS
 62
    16
  5
398
 10
-6754.309887
 20
-3527.235497
 30
0.0
 11
-6726.309887
 21
-3527.235497
 31
0.0
  0
LINE
  8
1
  6
CONTINUOUS
 62
    16
  5
399
 10
-6754.309887
 20
-3529.235497
 30
0.0
 11
-6726.309887
 21
-3529.235497
 31
0.0
  0
LINE
  8
1
  6
CONTINUOUS
 62
    16
  5
39A
 10
-6754.309887
 20
-3520.235497
 30
0.0
 11
-6726.309887
 21
-3520.235497
 31
0.0
  0
LINE
  8
1
  6
CONTINUOUS
 62
    16
  5
39B
 10
-6754.309887
 20
-3522.235497
 30
0.0
 11
-6726.309887
 21
-3522.235497
 31
0.0
  0
ARC
  8
1
  6
CONTINUOUS
 62
    16
  5
39C
 10
-6754.309887
 20
-3528.235497
 30
0.0
 40
1.0
 50
90.0
 51
270.0
  0
ARC
  8
1
  6
CONTINUOUS
 62
    16
  5
39D
 10
-6754.309887
 20
-3521.235497
 30
0.0
 40
1.0
 50
90.0
 51
270.0
  0
ARC
  8
1
  6
CONTINUOUS
 62
    16
  5
39E
 10
-6754.309887
 20
-3514.235497
 30
0.0
 40
1.0
 50
90.0
 51
270.0
  0
ARC
  8
1
  6
CONTINUOUS
 62
    16
  5
39F
 10
-6726.309887
 20
-3528.235497
 30
0.0
 40
1.0
 50
270.0
 51
90.0
  0
ARC
  8
1
  6
CONTINUOUS
 62
    16
  5
3A0
 10
-6726.309887
 20
-3521.235497
 30
0.0
 40
1.0
 50
270.0
 51
90.0
  0
ARC
  8
1
  6
CONTINUOUS
 62
    16
  5
3A1
 10
-6726.309887
 20
-3514.235497
 30
0.0
 40
1.0
 50
270.0
 51
90.0
  0
ARC
  8
1
  6
CONTINUOUS
 62
    16
  5
3A2
 10
-6726.309887
 20
-3542.235497
 30
0.0
 40
1.0
 50
270.0
 51
90.0
  0
ARC
  8
1
  6
CONTINUOUS
 62
    16
  5
3A3
 10
-6754.309887
 20
-3542.235497
 30
0.0
 40
1.0
 50
90.0
 51
270.0
  0
LINE
  8
1
  6
CONTINUOUS
 62
    16
  5
3A4
 10
-6754.309887
 20
-3543.235497
 30
0.0
 11
-6726.309887
 21
-3543.235497
 31
0.0
  0
LINE
  8
1
  6
CONTINUOUS
 62
    16
  5
3A5
 10
-6754.309887
 20
-3550.235497
 30
0.0
 11
-6726.309887
 21
-3550.235497
 31
0.0
  0
LINE
  8
1
  6
CONTINUOUS
 62
    16
  5
3A6
 10
-6754.309887
 20
-3548.235497
 30
0.0
 11
-6726.309887
 21
-3548.235497
 31
0.0
  0
ARC
  8
1
  6
CONTINUOUS
 62
    16
  5
3A7
 10
-6754.309887
 20
-3549.235497
 30
0.0
 40
1.0
 50
90.0
 51
270.0
  0
ARC
  8
1
  6
CONTINUOUS
 62
    16
  5
3A8
 10
-6726.309887
 20
-3549.235497
 30
0.0
 40
1.0
 50
270.0
 51
90.0
  0
LINE
  8
1
  6
CONTINUOUS
 62
    16
  5
3A9
 10
-6754.309887
 20
-3536.235497
 30
0.0
 11
-6726.309887
 21
-3536.235497
 31
0.0
  0
LINE
  8
1
  6
CONTINUOUS
 62
    16
  5
3AA
 10
-6754.309887
 20
-3534.235497
 30
0.0
 11
-6726.309887
 21
-3534.235497
 31
0.0
  0
LINE
  8
1
  6
CONTINUOUS
 62
    16
  5
3AB
 10
-6754.309887
 20
-3541.235497
 30
0.0
 11
-6726.309887
 21
-3541.235497
 31
0.0
  0
ARC
  8
1
  6
CONTINUOUS
 62
    16
  5
3AC
 10
-6754.309887
 20
-3535.235497
 30
0.0
 40
1.0
 50
90.0
 51
270.0
  0
ARC
  8
1
  6
CONTINUOUS
 62
    16
  5
3AD
 10
-6726.309887
 20
-3535.235497
 30
0.0
 40
1.0
 50
270.0
 51
90.0
  0
LINE
  8
1
  6
CONTINUOUS
 62
    16
  5
3AE
 10
-6754.309887
 20
-3564.235497
 30
0.0
 11
-6726.309887
 21
-3564.235497
 31
0.0
  0
LINE
  8
1
  6
CONTINUOUS
 62
    16
  5
3AF
 10
-6754.309887
 20
-3562.235497
 30
0.0
 11
-6726.309887
 21
-3562.235497
 31
0.0
  0
LINE
  8
1
  6
CONTINUOUS
 62
    16
  5
3B0
 10
-6754.309887
 20
-3571.235497
 30
0.0
 11
-6726.309887
 21
-3571.235497
 31
0.0
  0
LINE
  8
1
  6
CONTINUOUS
 62
    16
  5
3B1
 10
-6754.309887
 20
-3569.235497
 30
0.0
 11
-6726.309887
 21
-3569.235497
 31
0.0
  0
LINE
  8
1
  6
CONTINUOUS
 62
    16
  5
3B2
 10
-6754.309887
 20
-3557.235497
 30
0.0
 11
-6726.309887
 21
-3557.235497
 31
0.0
  0
LINE
  8
1
  6
CONTINUOUS
 62
    16
  5
3B3
 10
-6754.309887
 20
-3555.235497
 30
0.0
 11
-6726.309887
 21
-3555.235497
 31
0.0
  0
ARC
  8
1
  6
CONTINUOUS
 62
    16
  5
3B4
 10
-6754.309887
 20
-3570.235497
 30
0.0
 40
1.0
 50
90.0
 51
270.0
  0
ARC
  8
1
  6
CONTINUOUS
 62
    16
  5
3B5
 10
-6754.309887
 20
-3563.235497
 30
0.0
 40
1.0
 50
90.0
 51
270.0
  0
ARC
  8
1
  6
CONTINUOUS
 62
    16
  5
3B6
 10
-6754.309887
 20
-3556.235497
 30
0.0
 40
1.0
 50
90.0
 51
270.0
  0
ARC
  8
1
  6
CONTINUOUS
 62
    16
  5
3B7
 10
-6726.309887
 20
-3570.235497
 30
0.0
 40
1.0
 50
270.0
 51
90.0
  0
ARC
  8
1
  6
CONTINUOUS
 62
    16
  5
3B8
 10
-6726.309887
 20
-3563.235497
 30
0.0
 40
1.0
 50
270.0
 51
90.0
  0
ARC
  8
1
  6
CONTINUOUS
 62
    16
  5
3B9
 10
-6726.309887
 20
-3556.235497
 30
0.0
 40
1.0
 50
270.0
 51
90.0
  0
LINE
  8
1
  6
CONTINUOUS
 62
    16
  5
3BA
 10
-7067.309887
 20
-3458.985497
 30
0.0
 11
-7067.309887
 21
-3772.485497
 31
0.0
  0
LINE
  8
1
  6
CONTINUOUS
 62
    16
  5
3BB
 10
-7111.359887
 20
-4037.890546
 30
0.0
 11
-6628.759887
 21
-4037.890546
 31
0.0
  0
LINE
  8
1
  6
CONTINUOUS
 62
    16
  5
3BC
 10
-7111.359887
 20
-4081.890546
 30
0.0
 11
-6628.759887
 21
-4081.890546
 31
0.0
  0
ARC
  8
1
  6
CONTINUOUS
 62
    16
  5
3BD
 10
-7105.609887
 20
-4043.990546
 30
0.0
 40
3.25
 50
90.0
 51
270.0
  0
ARC
  8
1
  6
CONTINUOUS
 62
    16
  5
3BE
 10
-7101.109887
 20
-4043.990546
 30
0.0
 40
3.25
 50
270.0
 51
90.0
  0
LINE
  8
1
  6
CONTINUOUS
 62
    16
  5
3BF
 10
-7105.609887
 20
-4047.240546
 30
0.0
 11
-7101.109887
 21
-4047.240546
 31
0.0
  0
LINE
  8
1
  6
CONTINUOUS
 62
    16
  5
3C0
 10
-7105.609887
 20
-4040.740546
 30
0.0
 11
-7101.109887
 21
-4040.740546
 31
0.0
  0
LINE
  8
1
  6
CONTINUOUS
 62
    16
  5
3C1
 10
-7105.609887
 20
-4072.540546
 30
0.0
 11
-7101.109887
 21
-4072.540546
 31
0.0
  0
LINE
  8
1
  6
CONTINUOUS
 62
    16
  5
3C2
 10
-7105.609887
 20
-4079.040546
 30
0.0
 11
-7101.109887
 21
-4079.040546
 31
0.0
  0
ARC
  8
1
  6
CONTINUOUS
 62
    16
  5
3C3
 10
-7101.109887
 20
-4075.790546
 30
0.0
 40
3.25
 50
270.0
 51
90.0
  0
ARC
  8
1
  6
CONTINUOUS
 62
    16
  5
3C4
 10
-7105.609887
 20
-4075.790546
 30
0.0
 40
3.25
 50
90.0
 51
270.0
  0
LINE
  8
1
  6
CONTINUOUS
 62
    16
  5
3C5
 10
-7111.359887
 20
-4037.890546
 30
0.0
 11
-7111.359887
 21
-4081.890546
 31
0.0
  0
LINE
  8
1
  6
CONTINUOUS
 62
    16
  5
3C6
 10
-7067.309887
 20
-3772.485497
 30
0.0
 11
-6672.809887
 21
-3772.485497
 31
0.0
  0
LINE
  8
1
  6
CONTINUOUS
 62
    16
  5
3C7
 10
-7054.559887
 20
-3772.735497
 30
0.0
 11
-7084.559887
 21
-3772.735497
 31
0.0
  0
LINE
  8
1
  6
CONTINUOUS
 62
    16
  5
3C8
 10
-7054.559887
 20
-3772.735497
 30
0.0
 11
-7054.559887
 21
-3772.485497
 31
0.0
  0
LINE
  8
1
  6
CONTINUOUS
 62
    16
  5
3C9
 10
-7111.359887
 20
-3775.735497
 30
0.0
 11
-7111.359887
 21
-3772.735497
 31
0.0
  0
LINE
  8
1
  6
CONTINUOUS
 62
    16
  5
3CA
 10
-6628.759887
 20
-3772.735497
 30
0.0
 11
-7111.359887
 21
-3772.735497
 31
0.0
  0
LINE
  8
1
  6
CONTINUOUS
 62
    16
  5
3CB
 10
-7116.359887
 20
-4081.890546
 30
0.0
 11
-7152.359888
 21
-4081.890546
 31
0.0
  0
LINE
  8
1
  6
CONTINUOUS
 62
    16
  5
3CC
 10
-7116.359887
 20
-4037.890546
 30
0.0
 11
-7152.359888
 21
-4037.890546
 31
0.0
  0
LINE
  8
1
  6
CONTINUOUS
 62
    16
  5
3CD
 10
-7147.359888
 20
-4069.390546
 30
0.0
 11
-7147.359888
 21
-4050.390546
 31
0.0
  0
POINT
  8
1
  6
CONTINUOUS
 62
    16
  5
3CE
 10
-7111.359887
 20
-4081.890546
 30
0.0
  0
POINT
  8
1
  6
CONTINUOUS
 62
    16
  5
3CF
 10
-7111.359887
 20
-4037.890546
 30
0.0
  0
POINT
  8
1
  6
CONTINUOUS
 62
    16
  5
3D0
 10
-7147.359888
 20
-4037.890546
 30
0.0
  0
LINE
  8
1
  6
CONTINUOUS
 62
    16
  5
3D1
 10
-7144.010523
 20
-4069.390546
 30
0.0
 11
-7147.359888
 21
-4081.890546
 31
0.0
  0
LINE
  8
1
  6
CONTINUOUS
 62
    16
  5
3D2
 10
-7147.359888
 20
-4081.890546
 30
0.0
 11
-7150.709253
 21
-4069.390546
 31
0.0
  0
LINE
  8
1
  6
CONTINUOUS
 62
    16
  5
3D3
 10
-7147.359888
 20
-4081.890546
 30
0.0
 11
-7147.359888
 21
-4069.390546
 31
0.0
  0
LINE
  8
1
  6
CONTINUOUS
 62
    16
  5
3D4
 10
-7150.709253
 20
-4050.390546
 30
0.0
 11
-7147.359888
 21
-4037.890546
 31
0.0
  0
LINE
  8
1
  6
CONTINUOUS
 62
    16
  5
3D5
 10
-7147.359888
 20
-4037.890546
 30
0.0
 11
-7144.010523
 21
-4050.390546
 31
0.0
  0
LINE
  8
1
  6
CONTINUOUS
 62
    16
  5
3D6
 10
-7147.359888
 20
-4037.890546
 30
0.0
 11
-7147.359888
 21
-4050.390546
 31
0.0
  0
ARC
  8
1
  6
CONTINUOUS
 62
    16
  5
3D7
 10
-6634.509887
 20
-4043.990546
 30
0.0
 40
3.25
 50
270.0
 51
90.0
  0
ARC
  8
1
  6
CONTINUOUS
 62
    16
  5
3D8
 10
-6639.009887
 20
-4043.990546
 30
0.0
 40
3.25
 50
90.0
 51
270.0
  0
LINE
  8
1
  6
CONTINUOUS
 62
    16
  5
3D9
 10
-6634.509887
 20
-4047.240546
 30
0.0
 11
-6639.009887
 21
-4047.240546
 31
0.0
  0
LINE
  8
1
  6
CONTINUOUS
 62
    16
  5
3DA
 10
-6634.509887
 20
-4040.740546
 30
0.0
 11
-6639.009887
 21
-4040.740546
 31
0.0
  0
LINE
  8
1
  6
CONTINUOUS
 62
    16
  5
3DB
 10
-6634.509887
 20
-4072.540546
 30
0.0
 11
-6639.009887
 21
-4072.540546
 31
0.0
  0
LINE
  8
1
  6
CONTINUOUS
 62
    16
  5
3DC
 10
-6634.509887
 20
-4079.040546
 30
0.0
 11
-6639.009887
 21
-4079.040546
 31
0.0
  0
ARC
  8
1
  6
CONTINUOUS
 62
    16
  5
3DD
 10
-6639.009887
 20
-4075.790546
 30
0.0
 40
3.25
 50
90.0
 51
270.0
  0
ARC
  8
1
  6
CONTINUOUS
 62
    16
  5
3DE
 10
-6634.509887
 20
-4075.790546
 30
0.0
 40
3.25
 50
270.0
 51
90.0
  0
LINE
  8
1
  6
CONTINUOUS
 62
    16
  5
3DF
 10
-6628.759887
 20
-4037.890546
 30
0.0
 11
-6628.759887
 21
-4081.890546
 31
0.0
  0
POINT
  8
1
  6
CONTINUOUS
 62
    16
  5
3E0
 10
-7111.359887
 20
-4037.890546
 30
0.0
  0
POINT
  8
1
  6
CONTINUOUS
 62
    16
  5
3E1
 10
-6628.759887
 20
-4037.890546
 30
0.0
  0
CIRCLE
  8
1
  6
CONTINUOUS
 62
    16
  5
3E2
 10
-7059.560205
 20
-3727.735497
 30
0.0
 40
2.25
  0
ARC
  8
1
  6
CONTINUOUS
 62
    16
  5
3E3
 10
-7013.809887
 20
-3675.235497
 30
0.0
 40
1.0
 50
90.0
 51
270.0
  0
ARC
  8
1
  6
CONTINUOUS
 62
    16
  5
3E4
 10
-7013.809887
 20
-3668.235497
 30
0.0
 40
1.0
 50
90.0
 51
270.0
  0
ARC
  8
1
  6
CONTINUOUS
 62
    16
  5
3E5
 10
-7013.809887
 20
-3661.235497
 30
0.0
 40
1.0
 50
90.0
 51
270.0
  0
ARC
  8
1
  6
CONTINUOUS
 62
    16
  5
3E6
 10
-6985.809887
 20
-3675.235497
 30
0.0
 40
1.0
 50
270.0
 51
90.0
  0
ARC
  8
1
  6
CONTINUOUS
 62
    16
  5
3E7
 10
-6985.809887
 20
-3668.235497
 30
0.0
 40
1.0
 50
270.0
 51
90.0
  0
ARC
  8
1
  6
CONTINUOUS
 62
    16
  5
3E8
 10
-6985.809887
 20
-3661.235497
 30
0.0
 40
1.0
 50
270.0
 51
90.0
  0
LINE
  8
1
  6
CONTINUOUS
 62
    16
  5
3E9
 10
-6985.809887
 20
-3676.235497
 30
0.0
 11
-7013.809887
 21
-3676.235497
 31
0.0
  0
LINE
  8
1
  6
CONTINUOUS
 62
    16
  5
3EA
 10
-6985.809887
 20
-3674.235497
 30
0.0
 11
-7013.809887
 21
-3674.235497
 31
0.0
  0
LINE
  8
1
  6
CONTINUOUS
 62
    16
  5
3EB
 10
-6985.809887
 20
-3662.235497
 30
0.0
 11
-7013.809887
 21
-3662.235497
 31
0.0
  0
LINE
  8
1
  6
CONTINUOUS
 62
    16
  5
3EC
 10
-6985.809887
 20
-3660.235497
 30
0.0
 11
-7013.809887
 21
-3660.235497
 31
0.0
  0
LINE
  8
1
  6
CONTINUOUS
 62
    16
  5
3ED
 10
-6985.809887
 20
-3669.235497
 30
0.0
 11
-7013.809887
 21
-3669.235497
 31
0.0
  0
LINE
  8
1
  6
CONTINUOUS
 62
    16
  5
3EE
 10
-6985.809887
 20
-3667.235497
 30
0.0
 11
-7013.809887
 21
-3667.235497
 31
0.0
  0
ARC
  8
1
  6
CONTINUOUS
 62
    16
  5
3EF
 10
-7013.809887
 20
-3696.235497
 30
0.0
 40
1.0
 50
90.0
 51
270.0
  0
ARC
  8
1
  6
CONTINUOUS
 62
    16
  5
3F0
 10
-6985.809887
 20
-3696.235497
 30
0.0
 40
1.0
 50
270.0
 51
90.0
  0
LINE
  8
1
  6
CONTINUOUS
 62
    16
  5
3F1
 10
-6985.809887
 20
-3690.235497
 30
0.0
 11
-7013.809887
 21
-3690.235497
 31
0.0
  0
LINE
  8
1
  6
CONTINUOUS
 62
    16
  5
3F2
 10
-6985.809887
 20
-3697.235497
 30
0.0
 11
-7013.809887
 21
-3697.235497
 31
0.0
  0
LINE
  8
1
  6
CONTINUOUS
 62
    16
  5
3F3
 10
-6985.809887
 20
-3695.235497
 30
0.0
 11
-7013.809887
 21
-3695.235497
 31
0.0
  0
ARC
  8
1
  6
CONTINUOUS
 62
    16
  5
3F4
 10
-7013.809887
 20
-3682.235497
 30
0.0
 40
1.0
 50
90.0
 51
270.0
  0
ARC
  8
1
  6
CONTINUOUS
 62
    16
  5
3F5
 10
-6985.809887
 20
-3682.235497
 30
0.0
 40
1.0
 50
270.0
 51
90.0
  0
LINE
  8
1
  6
CONTINUOUS
 62
    16
  5
3F6
 10
-6985.809887
 20
-3683.235497
 30
0.0
 11
-7013.809887
 21
-3683.235497
 31
0.0
  0
LINE
  8
1
  6
CONTINUOUS
 62
    16
  5
3F7
 10
-6985.809887
 20
-3681.235497
 30
0.0
 11
-7013.809887
 21
-3681.235497
 31
0.0
  0
LINE
  8
1
  6
CONTINUOUS
 62
    16
  5
3F8
 10
-6985.809887
 20
-3688.235497
 30
0.0
 11
-7013.809887
 21
-3688.235497
 31
0.0
  0
ARC
  8
1
  6
CONTINUOUS
 62
    16
  5
3F9
 10
-6985.809887
 20
-3689.235497
 30
0.0
 40
1.0
 50
270.0
 51
90.0
  0
ARC
  8
1
  6
CONTINUOUS
 62
    16
  5
3FA
 10
-7013.809887
 20
-3689.235497
 30
0.0
 40
1.0
 50
90.0
 51
270.0
  0
ARC
  8
1
  6
CONTINUOUS
 62
    16
  5
3FB
 10
-7013.809887
 20
-3717.235497
 30
0.0
 40
1.0
 50
90.0
 51
270.0
  0
ARC
  8
1
  6
CONTINUOUS
 62
    16
  5
3FC
 10
-7013.809887
 20
-3710.235497
 30
0.0
 40
1.0
 50
90.0
 51
270.0
  0
ARC
  8
1
  6
CONTINUOUS
 62
    16
  5
3FD
 10
-7013.809887
 20
-3703.235497
 30
0.0
 40
1.0
 50
90.0
 51
270.0
  0
ARC
  8
1
  6
CONTINUOUS
 62
    16
  5
3FE
 10
-6985.809887
 20
-3717.235497
 30
0.0
 40
1.0
 50
270.0
 51
90.0
  0
ARC
  8
1
  6
CONTINUOUS
 62
    16
  5
3FF
 10
-6985.809887
 20
-3710.235497
 30
0.0
 40
1.0
 50
270.0
 51
90.0
  0
ARC
  8
1
  6
CONTINUOUS
 62
    16
  5
400
 10
-6985.809887
 20
-3703.235497
 30
0.0
 40
1.0
 50
270.0
 51
90.0
  0
LINE
  8
1
  6
CONTINUOUS
 62
    16
  5
401
 10
-6985.809887
 20
-3709.235497
 30
0.0
 11
-7013.809887
 21
-3709.235497
 31
0.0
  0
LINE
  8
1
  6
CONTINUOUS
 62
    16
  5
402
 10
-6985.809887
 20
-3711.235497
 30
0.0
 11
-7013.809887
 21
-3711.235497
 31
0.0
  0
LINE
  8
1
  6
CONTINUOUS
 62
    16
  5
403
 10
-6985.809887
 20
-3702.235497
 30
0.0
 11
-7013.809887
 21
-3702.235497
 31
0.0
  0
LINE
  8
1
  6
CONTINUOUS
 62
    16
  5
404
 10
-6985.809887
 20
-3704.235497
 30
0.0
 11
-7013.809887
 21
-3704.235497
 31
0.0
  0
LINE
  8
1
  6
CONTINUOUS
 62
    16
  5
405
 10
-6985.809887
 20
-3716.235497
 30
0.0
 11
-7013.809887
 21
-3716.235497
 31
0.0
  0
LINE
  8
1
  6
CONTINUOUS
 62
    16
  5
406
 10
-6985.809887
 20
-3718.235497
 30
0.0
 11
-7013.809887
 21
-3718.235497
 31
0.0
  0
ARC
  8
1
  6
CONTINUOUS
 62
    16
  5
407
 10
-7013.809887
 20
-3738.235497
 30
0.0
 40
1.0
 50
90.0
 51
270.0
  0
ARC
  8
1
  6
CONTINUOUS
 62
    16
  5
408
 10
-7013.809887
 20
-3731.235497
 30
0.0
 40
1.0
 50
90.0
 51
270.0
  0
ARC
  8
1
  6
CONTINUOUS
 62
    16
  5
409
 10
-6985.809887
 20
-3738.235497
 30
0.0
 40
1.0
 50
270.0
 51
90.0
  0
ARC
  8
1
  6
CONTINUOUS
 62
    16
  5
40A
 10
-6985.809887
 20
-3731.235497
 30
0.0
 40
1.0
 50
270.0
 51
90.0
  0
LINE
  8
1
  6
CONTINUOUS
 62
    16
  5
40B
 10
-6985.809887
 20
-3725.235497
 30
0.0
 11
-7013.809887
 21
-3725.235497
 31
0.0
  0
LINE
  8
1
  6
CONTINUOUS
 62
    16
  5
40C
 10
-6985.809887
 20
-3737.235497
 30
0.0
 11
-7013.809887
 21
-3737.235497
 31
0.0
  0
LINE
  8
1
  6
CONTINUOUS
 62
    16
  5
40D
 10
-6985.809887
 20
-3739.235497
 30
0.0
 11
-7013.809887
 21
-3739.235497
 31
0.0
  0
LINE
  8
1
  6
CONTINUOUS
 62
    16
  5
40E
 10
-6985.809887
 20
-3730.235497
 30
0.0
 11
-7013.809887
 21
-3730.235497
 31
0.0
  0
LINE
  8
1
  6
CONTINUOUS
 62
    16
  5
40F
 10
-6985.809887
 20
-3732.235497
 30
0.0
 11
-7013.809887
 21
-3732.235497
 31
0.0
  0
LINE
  8
1
  6
CONTINUOUS
 62
    16
  5
410
 10
-6985.809887
 20
-3723.235497
 30
0.0
 11
-7013.809887
 21
-3723.235497
 31
0.0
  0
ARC
  8
1
  6
CONTINUOUS
 62
    16
  5
411
 10
-6985.809887
 20
-3724.235497
 30
0.0
 40
1.0
 50
270.0
 51
90.0
  0
ARC
  8
1
  6
CONTINUOUS
 62
    16
  5
412
 10
-7013.809887
 20
-3724.235497
 30
0.0
 40
1.0
 50
90.0
 51
270.0
  0
ARC
  8
1
  6
CONTINUOUS
 62
    16
  5
413
 10
-7013.809887
 20
-3654.235497
 30
0.0
 40
1.0
 50
90.0
 51
270.0
  0
ARC
  8
1
  6
CONTINUOUS
 62
    16
  5
414
 10
-7013.809887
 20
-3647.235497
 30
0.0
 40
1.0
 50
90.0
 51
270.0
  0
ARC
  8
1
  6
CONTINUOUS
 62
    16
  5
415
 10
-6985.809887
 20
-3654.235497
 30
0.0
 40
1.0
 50
270.0
 51
90.0
  0
ARC
  8
1
  6
CONTINUOUS
 62
    16
  5
416
 10
-6985.809887
 20
-3647.235497
 30
0.0
 40
1.0
 50
270.0
 51
90.0
  0
LINE
  8
1
  6
CONTINUOUS
 62
    16
  5
417
 10
-6985.809887
 20
-3648.235497
 30
0.0
 11
-7013.809887
 21
-3648.235497
 31
0.0
  0
LINE
  8
1
  6
CONTINUOUS
 62
    16
  5
418
 10
-6985.809887
 20
-3646.235497
 30
0.0
 11
-7013.809887
 21
-3646.235497
 31
0.0
  0
LINE
  8
1
  6
CONTINUOUS
 62
    16
  5
419
 10
-6985.809887
 20
-3655.235497
 30
0.0
 11
-7013.809887
 21
-3655.235497
 31
0.0
  0
LINE
  8
1
  6
CONTINUOUS
 62
    16
  5
41A
 10
-6985.809887
 20
-3653.235497
 30
0.0
 11
-7013.809887
 21
-3653.235497
 31
0.0
  0
ARC
  8
1
  6
CONTINUOUS
 62
    16
  5
41B
 10
-7013.809887
 20
-3640.235497
 30
0.0
 40
1.0
 50
90.0
 51
270.0
  0
ARC
  8
1
  6
CONTINUOUS
 62
    16
  5
41C
 10
-7013.809887
 20
-3633.235497
 30
0.0
 40
1.0
 50
90.0
 51
270.0
  0
ARC
  8
1
  6
CONTINUOUS
 62
    16
  5
41D
 10
-7013.809887
 20
-3626.235497
 30
0.0
 40
1.0
 50
90.0
 51
270.0
  0
ARC
  8
1
  6
CONTINUOUS
 62
    16
  5
41E
 10
-6985.809887
 20
-3640.235497
 30
0.0
 40
1.0
 50
270.0
 51
90.0
  0
ARC
  8
1
  6
CONTINUOUS
 62
    16
  5
41F
 10
-6985.809887
 20
-3633.235497
 30
0.0
 40
1.0
 50
270.0
 51
90.0
  0
ARC
  8
1
  6
CONTINUOUS
 62
    16
  5
420
 10
-6985.809887
 20
-3626.235497
 30
0.0
 40
1.0
 50
270.0
 51
90.0
  0
LINE
  8
1
  6
CONTINUOUS
 62
    16
  5
421
 10
-6985.809887
 20
-3634.235497
 30
0.0
 11
-7013.809887
 21
-3634.235497
 31
0.0
  0
LINE
  8
1
  6
CONTINUOUS
 62
    16
  5
422
 10
-6985.809887
 20
-3632.235497
 30
0.0
 11
-7013.809887
 21
-3632.235497
 31
0.0
  0
LINE
  8
1
  6
CONTINUOUS
 62
    16
  5
423
 10
-6985.809887
 20
-3627.235497
 30
0.0
 11
-7013.809887
 21
-3627.235497
 31
0.0
  0
LINE
  8
1
  6
CONTINUOUS
 62
    16
  5
424
 10
-6985.809887
 20
-3625.235497
 30
0.0
 11
-7013.809887
 21
-3625.235497
 31
0.0
  0
LINE
  8
1
  6
CONTINUOUS
 62
    16
  5
425
 10
-6985.809887
 20
-3641.235497
 30
0.0
 11
-7013.809887
 21
-3641.235497
 31
0.0
  0
LINE
  8
1
  6
CONTINUOUS
 62
    16
  5
426
 10
-6985.809887
 20
-3639.235497
 30
0.0
 11
-7013.809887
 21
-3639.235497
 31
0.0
  0
LINE
  8
1
  6
CONTINUOUS
 62
    16
  5
427
 10
-7084.359887
 20
-4037.890546
 30
0.0
 11
-7084.359887
 21
-4081.890546
 31
0.0
  0
LINE
  8
1
  6
CONTINUOUS
 62
    16
  5
428
 10
-6655.759887
 20
-4037.890546
 30
0.0
 11
-6655.759887
 21
-4081.890546
 31
0.0
  0
LINE
  8
1
  6
CONTINUOUS
 62
    16
  5
429
 10
-6655.759887
 20
-4042.390546
 30
0.0
 11
-7084.359887
 21
-4042.390546
 31
0.0
  0
LINE
  8
1
  6
CONTINUOUS
 62
    16
  5
42A
 10
-6655.759887
 20
-4049.390546
 30
0.0
 11
-6719.531965
 21
-4049.390546
 31
0.0
  0
LINE
  8
1
  6
CONTINUOUS
 62
    16
  5
42B
 10
-6803.259887
 20
-4049.390546
 30
0.0
 11
-7084.359887
 21
-4049.390546
 31
0.0
  0
CIRCLE
  8
1
  6
CONTINUOUS
 62
    16
  5
42C
 10
-7051.859887
 20
-4067.390546
 30
0.0
 40
3.0
  0
LINE
  8
1
  6
CONTINUOUS
 62
    16
  5
42D
 10
-7050.359887
 20
-4067.390546
 30
0.0
 11
-7053.357494
 21
-4067.390546
 31
0.0
  0
LINE
  8
1
  6
CONTINUOUS
 62
    16
  5
42E
 10
-7051.859887
 20
-4065.448049
 30
0.0
 11
-7051.859887
 21
-4068.890546
 31
0.0
  0
CIRCLE
  8
1
  6
CONTINUOUS
 62
    16
  5
42F
 10
-6837.359887
 20
-4067.390546
 30
0.0
 40
3.0
  0
LINE
  8
1
  6
CONTINUOUS
 62
    16
  5
430
 10
-6835.859887
 20
-4067.390546
 30
0.0
 11
-6838.857494
 21
-4067.390546
 31
0.0
  0
LINE
  8
1
  6
CONTINUOUS
 62
    16
  5
431
 10
-6837.359887
 20
-4065.448049
 30
0.0
 11
-6837.359887
 21
-4068.890546
 31
0.0
  0
CIRCLE
  8
1
  6
CONTINUOUS
 62
    16
  5
432
 10
-7036.359887
 20
-4064.890546
 30
0.0
 40
4.0
  0
CIRCLE
  8
1
  6
CONTINUOUS
 62
    16
  5
433
 10
-7036.359887
 20
-4064.890546
 30
0.0
 40
3.75
  0
CIRCLE
  8
1
  6
CONTINUOUS
 62
    16
  5
434
 10
-7036.359887
 20
-4064.890546
 30
0.0
 40
3.25
  0
CIRCLE
  8
1
  6
CONTINUOUS
 62
    16
  5
435
 10
-7036.359887
 20
-4064.890546
 30
0.0
 40
2.75
  0
CIRCLE
  8
1
  6
CONTINUOUS
 62
    16
  5
436
 10
-7018.109887
 20
-4064.890546
 30
0.0
 40
4.0
  0
CIRCLE
  8
1
  6
CONTINUOUS
 62
    16
  5
437
 10
-7018.109887
 20
-4064.890546
 30
0.0
 40
3.75
  0
CIRCLE
  8
1
  6
CONTINUOUS
 62
    16
  5
438
 10
-7018.109887
 20
-4064.890546
 30
0.0
 40
3.25
  0
CIRCLE
  8
1
  6
CONTINUOUS
 62
    16
  5
439
 10
-7018.109887
 20
-4064.890546
 30
0.0
 40
2.75
  0
CIRCLE
  8
1
  6
CONTINUOUS
 62
    16
  5
43A
 10
-6999.859887
 20
-4064.890546
 30
0.0
 40
4.0
  0
CIRCLE
  8
1
  6
CONTINUOUS
 62
    16
  5
43B
 10
-6999.859887
 20
-4064.890546
 30
0.0
 40
3.75
  0
CIRCLE
  8
1
  6
CONTINUOUS
 62
    16
  5
43C
 10
-6999.859887
 20
-4064.890546
 30
0.0
 40
3.25
  0
CIRCLE
  8
1
  6
CONTINUOUS
 62
    16
  5
43D
 10
-6999.859887
 20
-4064.890546
 30
0.0
 40
2.75
  0
CIRCLE
  8
1
  6
CONTINUOUS
 62
    16
  5
43E
 10
-6981.609887
 20
-4064.890546
 30
0.0
 40
4.0
  0
CIRCLE
  8
1
  6
CONTINUOUS
 62
    16
  5
43F
 10
-6981.609887
 20
-4064.890546
 30
0.0
 40
3.75
  0
CIRCLE
  8
1
  6
CONTINUOUS
 62
    16
  5
440
 10
-6981.609887
 20
-4064.890546
 30
0.0
 40
3.25
  0
CIRCLE
  8
1
  6
CONTINUOUS
 62
    16
  5
441
 10
-6981.609887
 20
-4064.890546
 30
0.0
 40
2.75
  0
CIRCLE
  8
1
  6
CONTINUOUS
 62
    16
  5
442
 10
-6953.109887
 20
-4064.890546
 30
0.0
 40
4.0
  0
CIRCLE
  8
1
  6
CONTINUOUS
 62
    16
  5
443
 10
-6953.109887
 20
-4064.890546
 30
0.0
 40
3.75
  0
CIRCLE
  8
1
  6
CONTINUOUS
 62
    16
  5
444
 10
-6953.109887
 20
-4064.890546
 30
0.0
 40
3.25
  0
CIRCLE
  8
1
  6
CONTINUOUS
 62
    16
  5
445
 10
-6953.109887
 20
-4064.890546
 30
0.0
 40
2.75
  0
CIRCLE
  8
1
  6
CONTINUOUS
 62
    16
  5
446
 10
-6934.859887
 20
-4064.890546
 30
0.0
 40
4.0
  0
CIRCLE
  8
1
  6
CONTINUOUS
 62
    16
  5
447
 10
-6934.859887
 20
-4064.890546
 30
0.0
 40
3.75
  0
CIRCLE
  8
1
  6
CONTINUOUS
 62
    16
  5
448
 10
-6934.859887
 20
-4064.890546
 30
0.0
 40
3.25
  0
CIRCLE
  8
1
  6
CONTINUOUS
 62
    16
  5
449
 10
-6934.859887
 20
-4064.890546
 30
0.0
 40
2.75
  0
CIRCLE
  8
1
  6
CONTINUOUS
 62
    16
  5
44A
 10
-6922.788458
 20
-4064.890546
 30
0.0
 40
4.0
  0
CIRCLE
  8
1
  6
CONTINUOUS
 62
    16
  5
44B
 10
-6922.788458
 20
-4064.890546
 30
0.0
 40
3.75
  0
CIRCLE
  8
1
  6
CONTINUOUS
 62
    16
  5
44C
 10
-6922.788458
 20
-4064.890546
 30
0.0
 40
3.25
  0
CIRCLE
  8
1
  6
CONTINUOUS
 62
    16
  5
44D
 10
-6922.788458
 20
-4064.890546
 30
0.0
 40
2.75
  0
CIRCLE
  8
1
  6
CONTINUOUS
 62
    16
  5
44E
 10
-6910.71703
 20
-4064.890546
 30
0.0
 40
4.0
  0
CIRCLE
  8
1
  6
CONTINUOUS
 62
    16
  5
44F
 10
-6910.71703
 20
-4064.890546
 30
0.0
 40
3.75
  0
CIRCLE
  8
1
  6
CONTINUOUS
 62
    16
  5
450
 10
-6910.71703
 20
-4064.890546
 30
0.0
 40
3.25
  0
CIRCLE
  8
1
  6
CONTINUOUS
 62
    16
  5
451
 10
-6910.71703
 20
-4064.890546
 30
0.0
 40
2.75
  0
CIRCLE
  8
1
  6
CONTINUOUS
 62
    16
  5
452
 10
-6898.645601
 20
-4064.890546
 30
0.0
 40
4.0
  0
CIRCLE
  8
1
  6
CONTINUOUS
 62
    16
  5
453
 10
-6898.645601
 20
-4064.890546
 30
0.0
 40
3.75
  0
CIRCLE
  8
1
  6
CONTINUOUS
 62
    16
  5
454
 10
-6898.645601
 20
-4064.890546
 30
0.0
 40
3.25
  0
CIRCLE
  8
1
  6
CONTINUOUS
 62
    16
  5
455
 10
-6898.645601
 20
-4064.890546
 30
0.0
 40
2.75
  0
CIRCLE
  8
1
  6
CONTINUOUS
 62
    16
  5
456
 10
-6886.574172
 20
-4064.890546
 30
0.0
 40
4.0
  0
CIRCLE
  8
1
  6
CONTINUOUS
 62
    16
  5
457
 10
-6886.574172
 20
-4064.890546
 30
0.0
 40
3.75
  0
CIRCLE
  8
1
  6
CONTINUOUS
 62
    16
  5
458
 10
-6886.574172
 20
-4064.890546
 30
0.0
 40
3.25
  0
CIRCLE
  8
1
  6
CONTINUOUS
 62
    16
  5
459
 10
-6886.574172
 20
-4064.890546
 30
0.0
 40
2.75
  0
CIRCLE
  8
1
  6
CONTINUOUS
 62
    16
  5
45A
 10
-6874.502744
 20
-4064.890546
 30
0.0
 40
4.0
  0
CIRCLE
  8
1
  6
CONTINUOUS
 62
    16
  5
45B
 10
-6874.502744
 20
-4064.890546
 30
0.0
 40
3.75
  0
CIRCLE
  8
1
  6
CONTINUOUS
 62
    16
  5
45C
 10
-6874.502744
 20
-4064.890546
 30
0.0
 40
3.25
  0
CIRCLE
  8
1
  6
CONTINUOUS
 62
    16
  5
45D
 10
-6874.502744
 20
-4064.890546
 30
0.0
 40
2.75
  0
CIRCLE
  8
1
  6
CONTINUOUS
 62
    16
  5
45E
 10
-6862.431315
 20
-4064.890546
 30
0.0
 40
4.0
  0
CIRCLE
  8
1
  6
CONTINUOUS
 62
    16
  5
45F
 10
-6862.431315
 20
-4064.890546
 30
0.0
 40
3.75
  0
CIRCLE
  8
1
  6
CONTINUOUS
 62
    16
  5
460
 10
-6862.431315
 20
-4064.890546
 30
0.0
 40
3.25
  0
CIRCLE
  8
1
  6
CONTINUOUS
 62
    16
  5
461
 10
-6862.431315
 20
-4064.890546
 30
0.0
 40
2.75
  0
CIRCLE
  8
1
  6
CONTINUOUS
 62
    16
  5
462
 10
-7051.859887
 20
-4052.390546
 30
0.0
 40
3.0
  0
LINE
  8
1
  6
CONTINUOUS
 62
    16
  5
463
 10
-7050.359887
 20
-4052.390546
 30
0.0
 11
-7053.331762
 21
-4052.390546
 31
0.0
  0
LINE
  8
1
  6
CONTINUOUS
 62
    16
  5
464
 10
-7051.859887
 20
-4050.891744
 30
0.0
 11
-7051.859887
 21
-4053.890546
 31
0.0
  0
CIRCLE
  8
1
  6
CONTINUOUS
 62
    16
  5
465
 10
-6837.359887
 20
-4052.390546
 30
0.0
 40
3.0
  0
LINE
  8
1
  6
CONTINUOUS
 62
    16
  5
466
 10
-6835.859887
 20
-4052.390546
 30
0.0
 11
-6838.831762
 21
-4052.390546
 31
0.0
  0
LINE
  8
1
  6
CONTINUOUS
 62
    16
  5
467
 10
-6837.359887
 20
-4050.891744
 30
0.0
 11
-6837.359887
 21
-4053.890546
 31
0.0
  0
CIRCLE
  8
1
  6
CONTINUOUS
 62
    16
  5
468
 10
-6850.359887
 20
-4064.890546
 30
0.0
 40
4.0
  0
CIRCLE
  8
1
  6
CONTINUOUS
 62
    16
  5
469
 10
-6850.359887
 20
-4064.890546
 30
0.0
 40
3.75
  0
CIRCLE
  8
1
  6
CONTINUOUS
 62
    16
  5
46A
 10
-6850.359887
 20
-4064.890546
 30
0.0
 40
3.25
  0
CIRCLE
  8
1
  6
CONTINUOUS
 62
    16
  5
46B
 10
-6850.359887
 20
-4064.890546
 30
0.0
 40
2.75
  0
CIRCLE
  8
1
  6
CONTINUOUS
 62
    16
  5
46C
 10
-6820.359887
 20
-4064.890546
 30
0.0
 40
4.0
  0
CIRCLE
  8
1
  6
CONTINUOUS
 62
    16
  5
46D
 10
-6820.359887
 20
-4064.890546
 30
0.0
 40
3.75
  0
CIRCLE
  8
1
  6
CONTINUOUS
 62
    16
  5
46E
 10
-6820.359887
 20
-4064.890546
 30
0.0
 40
3.25
  0
CIRCLE
  8
1
  6
CONTINUOUS
 62
    16
  5
46F
 10
-6820.359887
 20
-4064.890546
 30
0.0
 40
2.75
  0
CIRCLE
  8
1
  6
CONTINUOUS
 62
    16
  5
470
 10
-6968.359887
 20
-4067.390546
 30
0.0
 40
3.0
  0
LINE
  8
1
  6
CONTINUOUS
 62
    16
  5
471
 10
-6966.859887
 20
-4067.390546
 30
0.0
 11
-6969.857494
 21
-4067.390546
 31
0.0
  0
LINE
  8
1
  6
CONTINUOUS
 62
    16
  5
472
 10
-6968.359887
 20
-4065.448049
 30
0.0
 11
-6968.359887
 21
-4068.890546
 31
0.0
  0
CIRCLE
  8
1
  6
CONTINUOUS
 62
    16
  5
473
 10
-6910.71703
 20
-4052.890546
 30
0.0
 40
1.5
  0
CIRCLE
  8
1
  6
CONTINUOUS
 62
    16
  5
474
 10
-6898.645601
 20
-4052.890546
 30
0.0
 40
1.5
  0
CIRCLE
  8
1
  6
CONTINUOUS
 62
    16
  5
475
 10
-6886.574172
 20
-4052.890546
 30
0.0
 40
1.5
  0
CIRCLE
  8
1
  6
CONTINUOUS
 62
    16
  5
476
 10
-6874.502744
 20
-4052.890546
 30
0.0
 40
1.5
  0
CIRCLE
  8
1
  6
CONTINUOUS
 62
    16
  5
477
 10
-6922.788458
 20
-4052.890546
 30
0.0
 40
1.5
  0
ARC
  8
1
  6
CONTINUOUS
 62
    16
  5
478
 10
-6680.648513
 20
-4063.645526
 30
0.001526
 40
2.438637
 50
5.122396
 51
10.231417
  0
ARC
  8
1
  6
CONTINUOUS
 62
    16
  5
479
 10
-6683.698278
 20
-4064.270444
 30
0.001526
 40
5.551389
 50
10.987637
 51
11.137064
  0
ARC
  8
1
  6
CONTINUOUS
 62
    16
  5
47A
 10
-7270.252827
 20
-4179.357719
 30
0.001526
 40
603.289893
 50
11.101259
 51
11.102634
  0
ARC
  8
1
  6
CONTINUOUS
 62
    16
  5
47B
 10
-10230.255615
 20
-4760.426844
 30
0.001526
 40
3619.787502
 50
11.105715
 51
11.105944
  0
LINE
  8
1
  6
CONTINUOUS
 62
    16
  5
47C
 10
-6678.25701
 20
-4063.16974
 30
0.001526
 11
-6678.259798
 21
-4063.155532
 31
0.001526
  0
ARC
  8
1
  6
CONTINUOUS
 62
    16
  5
47D
 10
-6887.202368
 20
-4104.148428
 30
0.001526
 40
212.925844
 50
11.099998
 51
11.103894
  0
ARC
  8
1
  6
CONTINUOUS
 62
    16
  5
47E
 10
-6679.233765
 20
-4063.332584
 30
0.001526
 40
0.989833
 50
11.140992
 51
11.979798
  0
ARC
  8
1
  6
CONTINUOUS
 62
    16
  5
47F
 10
-6679.434407
 20
-4063.375075
 30
0.001526
 40
1.194925
 50
11.975956
 51
12.670837
  0
ARC
  8
1
  6
CONTINUOUS
 62
    16
  5
480
 10
-6679.739104
 20
-4063.443571
 30
0.001526
 40
1.507226
 50
12.670545
 51
13.2215
  0
ARC
  8
1
  6
CONTINUOUS
 62
    16
  5
481
 10
-6680.256905
 20
-4063.565345
 30
0.001526
 40
2.039154
 50
13.22476
 51
13.632018
  0
ARC
  8
1
  6
CONTINUOUS
 62
    16
  5
482
 10
-6681.334909
 20
-4063.82662
 30
0.001526
 40
3.148368
 50
13.629204
 51
13.892993
  0
ARC
  8
1
  6
CONTINUOUS
 62
    16
  5
483
 10
-6682.129848
 20
-4064.022092
 30
0.001526
 40
3.966987
 50
13.876838
 51
14.08654
  0
ARC
  8
1
  6
CONTINUOUS
 62
    16
  5
484
 10
-6681.581493
 20
-4063.884592
 30
0.001526
 40
3.401656
 50
14.088177
 51
14.332716
  0
ARC
  8
1
  6
CONTINUOUS
 62
    16
  5
485
 10
-6681.172789
 20
-4063.780343
 30
0.001526
 40
2.979865
 50
14.336022
 51
14.615167
  0
ARC
  8
1
  6
CONTINUOUS
 62
    16
  5
486
 10
-6680.852686
 20
-4063.69661
 30
0.001526
 40
2.648993
 50
14.609675
 51
14.923656
  0
ARC
  8
1
  6
CONTINUOUS
 62
    16
  5
487
 10
-6680.598678
 20
-4063.629031
 30
0.001526
 40
2.386148
 50
14.926442
 51
15.275029
  0
ARC
  8
1
  6
CONTINUOUS
 62
    16
  5
488
 10
-6680.526329
 20
-4063.609491
 30
0.001526
 40
2.311207
 50
15.280241
 51
16.721554
  0
ARC
  8
1
  6
CONTINUOUS
 62
    16
  5
489
 10
-6680.617866
 20
-4063.636774
 30
0.001526
 40
2.406724
 50
16.716628
 51
18.100878
  0
ARC
  8
1
  6
CONTINUOUS
 62
    16
  5
48A
 10
-6680.67466
 20
-4063.654983
 30
0.001526
 40
2.466365
 50
18.09302
 51
22.814441
  0
ARC
  8
1
  6
CONTINUOUS
 62
    16
  5
48B
 10
-6680.684903
 20
-4063.660391
 30
0.001526
 40
2.477903
 50
22.837867
 51
45.785296
  0
ARC
  8
1
  6
CONTINUOUS
 62
    16
  5
48C
 10
-6679.654224
 20
-4062.542513
 30
0.001526
 40
0.958812
 50
43.34464
 51
45.971421
  0
ARC
  8
1
  6
CONTINUOUS
 62
    16
  5
48D
 10
-6679.842511
 20
-4062.737293
 30
0.001526
 40
1.22972
 50
45.971353
 51
48.020424
  0
ARC
  8
1
  6
CONTINUOUS
 62
    16
  5
48E
 10
-6680.165464
 20
-4063.096198
 30
0.001526
 40
1.712536
 50
48.0198
 51
49.492511
  0
ARC
  8
1
  6
CONTINUOUS
 62
    16
  5
48F
 10
-6680.87265
 20
-4063.923939
 30
0.001526
 40
2.801236
 50
49.491861
 51
50.392546
  0
ARC
  8
1
  6
CONTINUOUS
 62
    16
  5
490
 10
-6683.963035
 20
-4067.658738
 30
0.001526
 40
7.648833
 50
50.393285
 51
50.726288
  0
ARC
  8
1
  6
CONTINUOUS
 62
    16
  5
491
 10
-6682.618735
 20
-4066.356066
 30
0.001526
 40
5.793448
 50
52.863361
 51
53.299038
  0
ARC
  8
1
  6
CONTINUOUS
 62
    16
  5
492
 10
-7091.564609
 20
-4612.869757
 30
0.001526
 40
688.372329
 50
53.194076
 51
53.197742
  0
ARC
  8
1
  6
CONTINUOUS
 62
    16
  5
493
 10
-8878.45926
 20
-7001.338157
 30
0.001526
 40
3671.28597
 50
53.198427
 51
53.199115
  0
ARC
  8
1
  6
CONTINUOUS
 62
    16
  5
494
 10
-13276.994536
 20
-12880.6451
 30
0.001526
 40
11013.85791
 50
53.198656
 51
53.198885
  0
ARC
  8
1
  6
CONTINUOUS
 62
    16
  5
495
 10
-6777.742499
 20
-4193.253038
 30
0.001526
 40
164.38521
 50
53.195775
 51
53.211131
  0
ARC
  8
1
  6
CONTINUOUS
 62
    16
  5
496
 10
-6679.767563
 20
-4062.236831
 30
0.001526
 40
0.787123
 50
53.326647
 51
55.473801
  0
ARC
  8
1
  6
CONTINUOUS
 62
    16
  5
497
 10
-6679.891078
 20
-4062.416371
 30
0.001526
 40
1.005047
 50
55.473808
 51
57.155753
  0
ARC
  8
1
  6
CONTINUOUS
 62
    16
  5
498
 10
-6680.10002
 20
-4062.740051
 30
0.001526
 40
1.390307
 50
57.156065
 51
58.372787
  0
ARC
  8
1
  6
CONTINUOUS
 62
    16
  5
499
 10
-6680.548716
 20
-4063.468565
 30
0.001526
 40
2.245912
 50
58.372047
 51
59.125598
  0
ARC
  8
1
  6
CONTINUOUS
 62
    16
  5
49A
 10
-6682.37024
 20
-4066.515304
 30
0.001526
 40
5.795641
 50
59.126139
 51
59.418118
  0
ARC
  8
1
  6
CONTINUOUS
 62
    16
  5
49B
 10
-6685.707366
 20
-4072.143301
 30
0.001526
 40
12.338631
 50
59.373585
 51
59.441652
  0
ARC
  8
1
  6
CONTINUOUS
 62
    16
  5
49C
 10
-6682.418892
 20
-4066.573535
 30
0.001526
 40
5.870528
 50
59.441538
 51
59.584549
  0
ARC
  8
1
  6
CONTINUOUS
 62
    16
  5
49D
 10
-6681.394603
 20
-4064.828393
 30
0.001526
 40
3.846993
 50
59.581825
 51
59.800008
  0
ARC
  8
1
  6
CONTINUOUS
 62
    16
  5
49E
 10
-6680.898247
 20
-4063.976034
 30
0.001526
 40
2.860644
 50
59.804697
 51
60.098051
  0
ARC
  8
1
  6
CONTINUOUS
 62
    16
  5
49F
 10
-6680.608269
 20
-4063.471406
 30
0.001526
 40
2.278633
 50
60.093289
 51
60.461586
  0
ARC
  8
1
  6
CONTINUOUS
 62
    16
  5
4A0
 10
-6680.52793
 20
-4063.33036
 30
0.001526
 40
2.116312
 50
60.471339
 51
60.872179
  0
ARC
  8
1
  6
CONTINUOUS
 62
    16
  5
4A1
 10
-6680.578012
 20
-4063.420394
 30
0.001526
 40
2.219338
 50
60.874147
 51
61.256424
  0
ARC
  8
1
  6
CONTINUOUS
 62
    16
  5
4A2
 10
-6680.632724
 20
-4063.519967
 30
0.001526
 40
2.332952
 50
61.254308
 51
61.618021
  0
ARC
  8
1
  6
CONTINUOUS
 62
    16
  5
4A3
 10
-6680.691697
 20
-4063.628998
 30
0.001526
 40
2.45691
 50
61.616689
 51
61.962068
  0
ARC
  8
1
  6
CONTINUOUS
 62
    16
  5
4A4
 10
-6680.75639
 20
-4063.750771
 30
0.001526
 40
2.594801
 50
61.96515
 51
62.292194
  0
ARC
  8
1
  6
CONTINUOUS
 62
    16
  5
4A5
 10
-6680.773089
 20
-4063.782064
 30
0.001526
 40
2.63027
 50
62.287107
 51
65.50096
  0
ARC
  8
1
  6
CONTINUOUS
 62
    16
  5
4A6
 10
-6680.757883
 20
-4063.751072
 30
0.001526
 40
2.595763
 50
65.522708
 51
92.989591
  0
ARC
  8
1
  6
CONTINUOUS
 62
    16
  5
4A7
 10
-6680.760478
 20
-4063.751594
 30
0.001526
 40
2.59615
 50
92.931801
 51
129.133786
  0
ARC
  8
1
  6
CONTINUOUS
 62
    16
  5
4A8
 10
-6678.561491
 20
-4066.074754
 30
0.001526
 40
5.790973
 50
131.503816
 51
131.938805
  0
ARC
  8
1
  6
CONTINUOUS
 62
    16
  5
4A9
 10
-6224.213813
 20
-4573.609874
 30
0.001526
 40
686.983822
 50
131.83592
 51
131.839587
  0
ARC
  8
1
  6
CONTINUOUS
 62
    16
  5
4AA
 10
-4238.480945
 20
-6791.477744
 30
0.001526
 40
3663.907219
 50
131.839249
 51
131.839937
  0
ARC
  8
1
  6
CONTINUOUS
 62
    16
  5
4AB
 10
649.486299
 20
-12250.840405
 30
0.001526
 40
10991.721658
 50
131.839479
 51
131.839708
  0
ARC
  8
1
  6
CONTINUOUS
 62
    16
  5
4AC
 10
-6549.228274
 20
-4210.751552
 30
0.001526
 40
199.848777
 50
131.836971
 51
131.849576
  0
ARC
  8
1
  6
CONTINUOUS
 62
    16
  5
4AD
 10
-6681.92132
 20
-4062.597896
 30
0.001526
 40
0.959488
 50
131.959047
 51
134.578496
  0
ARC
  8
1
  6
CONTINUOUS
 62
    16
  5
4AE
 10
-6681.733024
 20
-4062.788946
 30
0.001526
 40
1.227733
 50
134.579694
 51
136.627849
  0
ARC
  8
1
  6
CONTINUOUS
 62
    16
  5
4AF
 10
-6681.387649
 20
-4063.115248
 30
0.001526
 40
1.702872
 50
136.627486
 51
138.105467
  0
ARC
  8
1
  6
CONTINUOUS
 62
    16
  5
4B0
 10
-6680.601034
 20
-4063.820879
 30
0.001526
 40
2.759601
 50
138.105828
 51
139.018201
  0
ARC
  8
1
  6
CONTINUOUS
 62
    16
  5
4B1
 10
-6677.219051
 20
-4066.759092
 30
0.001526
 40
7.239658
 50
139.017092
 51
139.368201
  0
ARC
  8
1
  6
CONTINUOUS
 62
    16
  5
4B2
 10
-6678.236408
 20
-4065.603241
 30
0.001526
 40
5.718922
 50
141.519592
 51
141.958248
  0
ARC
  8
1
  6
CONTINUOUS
 62
    16
  5
4B3
 10
-6144.67581
 20
-4484.658756
 30
0.001526
 40
684.168938
 50
141.854977
 51
141.858644
  0
ARC
  8
1
  6
CONTINUOUS
 62
    16
  5
4B4
 10
-3813.030978
 20
-6315.714027
 30
0.001526
 40
3648.849531
 50
141.857496
 51
141.858184
  0
ARC
  8
1
  6
CONTINUOUS
 62
    16
  5
4B5
 10
1926.441979
 20
-10822.915131
 30
0.001526
 40
10946.548594
 50
141.857725
 51
141.857954
  0
ARC
  8
1
  6
CONTINUOUS
 62
    16
  5
4B6
 10
-6556.221093
 20
-4161.611333
 30
0.001526
 40
160.977628
 50
141.854751
 51
141.870336
  0
ARC
  8
1
  6
CONTINUOUS
 62
    16
  5
4B7
 10
-6682.242566
 20
-4062.690482
 30
0.001526
 40
0.769183
 50
141.986985
 51
144.15843
  0
ARC
  8
1
  6
CONTINUOUS
 62
    16
  5
4B8
 10
-6682.071413
 20
-4062.814099
 30
0.001526
 40
0.980309
 50
144.158951
 51
145.863126
  0
ARC
  8
1
  6
CONTINUOUS
 62
    16
  5
4B9
 10
-6681.76412
 20
-4063.022412
 30
0.001526
 40
1.351556
 50
145.864142
 51
147.101031
  0
ARC
  8
1
  6
CONTINUOUS
 62
    16
  5
4BA
 10
-6681.078435
 20
-4063.466001
 30
0.001526
 40
2.168216
 50
147.100644
 51
147.872072
  0
ARC
  8
1
  6
CONTINUOUS
 62
    16
  5
4BB
 10
-6678.316513
 20
-4065.200666
 30
0.001526
 40
5.4297
 50
147.869943
 51
148.177965
  0
ARC
  8
1
  6
CONTINUOUS
 62
    16
  5
4BC
 10
-6673.621811
 20
-4068.12384
 30
0.001526
 40
10.960083
 50
148.13428
 51
148.210827
  0
ARC
  8
1
  6
CONTINUOUS
 62
    16
  5
4BD
 10
-6678.274105
 20
-4065.240529
 30
0.001526
 40
5.486755
 50
148.210679
 51
148.363544
  0
ARC
  8
1
  6
CONTINUOUS
 62
    16
  5
4BE
 10
-6679.83057
 20
-4064.28156
 30
0.001526
 40
3.658585
 50
148.364344
 51
148.593527
  0
ARC
  8
1
  6
CONTINUOUS
 62
    16
  5
4BF
 10
-6680.611106
 20
-4063.805157
 30
0.001526
 40
2.744147
 50
148.59069
 51
148.896191
  0
ARC
  8
1
  6
CONTINUOUS
 62
    16
  5
4C0
 10
-6681.079513
 20
-4063.52236
 30
0.001526
 40
2.196992
 50
148.900516
 51
149.282106
  0
ARC
  8
1
  6
CONTINUOUS
 62
    16
  5
4C1
 10
-6681.210772
 20
-4063.444195
 30
0.001526
 40
2.044222
 50
149.286266
 51
149.691919
  0
ARC
  8
1
  6
CONTINUOUS
 62
    16
  5
4C2
 10
-6681.124674
 20
-4063.494519
 30
0.001526
 40
2.143949
 50
149.692015
 51
150.078876
  0
ARC
  8
1
  6
CONTINUOUS
 62
    16
  5
4C3
 10
-6681.029577
 20
-4063.549224
 30
0.001526
 40
2.253657
 50
150.07943
 51
150.447498
  0
ARC
  8
1
  6
CONTINUOUS
 62
    16
  5
4C4
 10
-6680.924045
 20
-4063.609005
 30
0.001526
 40
2.374945
 50
150.448638
 51
150.797913
  0
ARC
  8
1
  6
CONTINUOUS
 62
    16
  5
4C5
 10
-6680.807489
 20
-4063.674218
 30
0.001526
 40
2.508504
 50
150.796568
 51
151.127279
  0
ARC
  8
1
  6
CONTINUOUS
 62
    16
  5
4C6
 10
-6680.779146
 20
-4063.690007
 30
0.001526
 40
2.540948
 50
151.124125
 51
153.754574
  0
ARC
  8
1
  6
CONTINUOUS
 62
    16
  5
4C7
 10
-6680.824354
 20
-4063.666868
 30
0.001526
 40
2.490168
 50
153.772095
 51
286.910729
  0
ARC
  8
1
  6
CONTINUOUS
 62
    16
  5
4C8
 10
-6680.75389
 20
-4063.548436
 30
0.001526
 40
2.58499
 50
284.652273
 51
304.292714
  0
ARC
  8
1
  6
CONTINUOUS
 62
    16
  5
4C9
 10
-6680.733631
 20
-4063.582245
 30
0.001526
 40
2.545646
 50
304.34475
 51
309.314265
  0
ARC
  8
1
  6
CONTINUOUS
 62
    16
  5
4CA
 10
-6682.958282
 20
-4061.214839
 30
0.001526
 40
5.790973
 50
311.503816
 51
311.938805
  0
ARC
  8
1
  6
CONTINUOUS
 62
    16
  5
4CB
 10
-7137.305959
 20
-3553.679719
 30
0.001526
 40
686.983822
 50
311.83592
 51
311.839587
  0
ARC
  8
1
  6
CONTINUOUS
 62
    16
  5
4CC
 10
-9123.038828
 20
-1335.811849
 30
0.001526
 40
3663.907219
 50
311.839249
 51
311.839937
  0
ARC
  8
1
  6
CONTINUOUS
 62
    16
  5
4CD
 10
-14011.006072
 20
4123.550812
 30
0.001526
 40
10991.721658
 50
311.839479
 51
311.839708
  0
ARC
  8
1
  6
CONTINUOUS
 62
    16
  5
4CE
 10
-6812.291498
 20
-3916.538041
 30
0.001526
 40
199.848777
 50
311.836971
 51
311.849576
  0
ARC
  8
1
  6
CONTINUOUS
 62
    16
  5
4CF
 10
-6679.598453
 20
-4064.691697
 30
0.001526
 40
0.959488
 50
311.959047
 51
314.578496
  0
ARC
  8
1
  6
CONTINUOUS
 62
    16
  5
4D0
 10
-6679.786748
 20
-4064.500647
 30
0.001526
 40
1.227733
 50
314.579694
 51
316.627849
  0
ARC
  8
1
  6
CONTINUOUS
 62
    16
  5
4D1
 10
-6680.132124
 20
-4064.174345
 30
0.001526
 40
1.702872
 50
316.627486
 51
318.105467
  0
ARC
  8
1
  6
CONTINUOUS
 62
    16
  5
4D2
 10
-6680.918738
 20
-4063.468715
 30
0.001526
 40
2.759601
 50
318.105828
 51
319.018201
  0
ARC
  8
1
  6
CONTINUOUS
 62
    16
  5
4D3
 10
-6684.300721
 20
-4060.530502
 30
0.001526
 40
7.239658
 50
319.017092
 51
319.368201
  0
ARC
  8
1
  6
CONTINUOUS
 62
    16
  5
4D4
 10
-6683.283365
 20
-4061.686352
 30
0.001526
 40
5.718922
 50
321.519592
 51
321.958248
  0
ARC
  8
1
  6
CONTINUOUS
 62
    16
  5
4D5
 10
-7216.843963
 20
-3642.630837
 30
0.001526
 40
684.168938
 50
321.854977
 51
321.858644
  0
ARC
  8
1
  6
CONTINUOUS
 62
    16
  5
4D6
 10
-9548.488794
 20
-1811.575566
 30
0.001526
 40
3648.849531
 50
321.857496
 51
321.858184
  0
ARC
  8
1
  6
CONTINUOUS
 62
    16
  5
4D7
 10
-15287.961751
 20
2695.625537
 30
0.001526
 40
10946.548594
 50
321.857725
 51
321.857954
  0
ARC
  8
1
  6
CONTINUOUS
 62
    16
  5
4D8
 10
-6805.29868
 20
-3965.67826
 30
0.001526
 40
160.977628
 50
321.854751
 51
321.870336
  0
ARC
  8
1
  6
CONTINUOUS
 62
    16
  5
4D9
 10
-6679.277207
 20
-4064.599111
 30
0.001526
 40
0.769183
 50
321.986985
 51
324.15843
  0
ARC
  8
1
  6
CONTINUOUS
 62
    16
  5
4DA
 10
-6679.448359
 20
-4064.475494
 30
0.001526
 40
0.980309
 50
324.158951
 51
325.863126
  0
ARC
  8
1
  6
CONTINUOUS
 62
    16
  5
4DB
 10
-6679.755653
 20
-4064.267181
 30
0.001526
 40
1.351556
 50
325.864142
 51
327.101031
  0
ARC
  8
1
  6
CONTINUOUS
 62
    16
  5
4DC
 10
-6680.441338
 20
-4063.823592
 30
0.001526
 40
2.168216
 50
327.100644
 51
327.872072
  0
ARC
  8
1
  6
CONTINUOUS
 62
    16
  5
4DD
 10
-6683.203259
 20
-4062.088927
 30
0.001526
 40
5.4297
 50
327.869943
 51
328.177965
  0
ARC
  8
1
  6
CONTINUOUS
 62
    16
  5
4DE
 10
-6687.897961
 20
-4059.165753
 30
0.001526
 40
10.960083
 50
328.13428
 51
328.210827
  0
ARC
  8
1
  6
CONTINUOUS
 62
    16
  5
4DF
 10
-6683.245667
 20
-4062.049064
 30
0.001526
 40
5.486755
 50
328.210679
 51
328.363544
  0
ARC
  8
1
  6
CONTINUOUS
 62
    16
  5
4E0
 10
-6681.689202
 20
-4063.008034
 30
0.001526
 40
3.658585
 50
328.364344
 51
328.593527
  0
ARC
  8
1
  6
CONTINUOUS
 62
    16
  5
4E1
 10
-6680.908666
 20
-4063.484437
 30
0.001526
 40
2.744147
 50
328.59069
 51
328.896191
  0
ARC
  8
1
  6
CONTINUOUS
 62
    16
  5
4E2
 10
-6680.44026
 20
-4063.767234
 30
0.001526
 40
2.196992
 50
328.900516
 51
329.282106
  0
ARC
  8
1
  6
CONTINUOUS
 62
    16
  5
4E3
 10
-6680.309
 20
-4063.845398
 30
0.001526
 40
2.044222
 50
329.286266
 51
329.691919
  0
ARC
  8
1
  6
CONTINUOUS
 62
    16
  5
4E4
 10
-6680.395099
 20
-4063.795074
 30
0.001526
 40
2.143949
 50
329.692015
 51
330.078876
  0
ARC
  8
1
  6
CONTINUOUS
 62
    16
  5
4E5
 10
-6680.490196
 20
-4063.740369
 30
0.001526
 40
2.253657
 50
330.07943
 51
330.447498
  0
ARC
  8
1
  6
CONTINUOUS
 62
    16
  5
4E6
 10
-6680.595728
 20
-4063.680589
 30
0.001526
 40
2.374945
 50
330.448638
 51
330.797913
  0
ARC
  8
1
  6
CONTINUOUS
 62
    16
  5
4E7
 10
-6680.712283
 20
-4063.615375
 30
0.001526
 40
2.508504
 50
330.796568
 51
331.127279
  0
ARC
  8
1
  6
CONTINUOUS
 62
    16
  5
4E8
 10
-6680.740627
 20
-4063.599608
 30
0.001526
 40
2.540938
 50
331.124561
 51
333.755009
  0
ARC
  8
1
  6
CONTINUOUS
 62
    16
  5
4E9
 10
-6680.652837
 20
-4063.643548
 30
0.001526
 40
2.442768
 50
333.768801
 51
5.067113
  0
ARC
  8
1
  6
CONTINUOUS
 62
    16
  5
4EA
 10
-6680.629121
 20
-4062.537466
 30
0.001526
 40
2.419048
 50
5.091096
 51
14.979706
  0
ARC
  8
1
  6
CONTINUOUS
 62
    16
  5
4EB
 10
-6680.682882
 20
-4062.550268
 30
0.001526
 40
2.474293
 50
14.944287
 51
56.967763
  0
ARC
  8
1
  6
CONTINUOUS
 62
    16
  5
4EC
 10
-6680.75758
 20
-4062.638127
 30
0.001526
 40
2.588711
 50
56.641733
 51
102.360563
  0
ARC
  8
1
  6
CONTINUOUS
 62
    16
  5
4ED
 10
-6680.76641
 20
-4062.629321
 30
0.001526
 40
2.578228
 50
102.210762
 51
137.091264
  0
ARC
  8
1
  6
CONTINUOUS
 62
    16
  5
4EE
 10
-6680.835941
 20
-4062.552052
 30
0.001526
 40
2.47471
 50
137.305571
 51
176.263179
  0
ARC
  8
1
  6
CONTINUOUS
 62
    16
  5
4EF
 10
-6680.916925
 20
-4062.537421
 30
0.001526
 40
2.392963
 50
176.486368
 51
180.056981
  0
ARC
  8
1
  6
CONTINUOUS
 62
    16
  5
4F0
 10
-6680.651867
 20
-4062.540566
 30
0.001526
 40
2.441981
 50
0.017947
 51
5.116201
  0
ARC
  8
1
  6
CONTINUOUS
 62
    16
  5
4F1
 10
-6683.762649
 20
-4062.928277
 30
0.001526
 40
5.576004
 50
6.233822
 51
6.457046
  0
ARC
  8
1
  6
CONTINUOUS
 62
    16
  5
4F2
 10
-7352.879479
 20
-4138.040415
 30
0.001526
 40
678.895513
 50
6.405388
 51
6.407222
  0
ARC
  8
1
  6
CONTINUOUS
 62
    16
  5
4F3
 10
-9376.850653
 20
-4365.268826
 30
0.001526
 40
2715.582054
 50
6.406076
 51
6.406534
  0
ARC
  8
1
  6
CONTINUOUS
 62
    16
  5
4F4
 10
-12075.478077
 20
-4668.497237
 30
0.001526
 40
5431.192008
 50
6.408811
 51
6.409041
  0
ARC
  8
1
  6
CONTINUOUS
 62
    16
  5
4F5
 10
-6885.817041
 20
-4085.542955
 30
0.001526
 40
208.892
 50
6.405947
 51
6.411905
  0
ARC
  8
1
  6
CONTINUOUS
 62
    16
  5
4F6
 10
-6679.215439
 20
-4062.326221
 30
0.001526
 40
0.990008
 50
6.458972
 51
7.716488
  0
ARC
  8
1
  6
CONTINUOUS
 62
    16
  5
4F7
 10
-6679.419397
 20
-4062.353897
 30
0.001526
 40
1.195836
 50
7.718398
 51
8.75957
  0
ARC
  8
1
  6
CONTINUOUS
 62
    16
  5
4F8
 10
-6679.729706
 20
-4062.401676
 30
0.001526
 40
1.509801
 50
8.758245
 51
9.583071
  0
ARC
  8
1
  6
CONTINUOUS
 62
    16
  5
4F9
 10
-6680.258733
 20
-4062.490991
 30
0.001526
 40
2.046315
 50
9.583015
 51
10.191724
  0
ARC
  8
1
  6
CONTINUOUS
 62
    16
  5
4FA
 10
-6681.363859
 20
-4062.689646
 30
0.001526
 40
3.169153
 50
10.191297
 51
10.584345
  0
ARC
  8
1
  6
CONTINUOUS
 62
    16
  5
4FB
 10
-6682.146233
 20
-4062.834263
 30
0.001526
 40
3.96478
 50
10.561917
 51
10.876356
  0
ARC
  8
1
  6
CONTINUOUS
 62
    16
  5
4FC
 10
-6681.545288
 20
-4062.718813
 30
0.001526
 40
3.352846
 50
10.876637
 51
11.248371
  0
ARC
  8
1
  6
CONTINUOUS
 62
    16
  5
4FD
 10
-6681.10582
 20
-4062.631329
 30
0.001526
 40
2.904755
 50
11.246784
 51
11.675814
  0
ARC
  8
1
  6
CONTINUOUS
 62
    16
  5
4FE
 10
-6680.770355
 20
-4062.562058
 30
0.001526
 40
2.562213
 50
11.676974
 51
12.1633
  0
ARC
  8
1
  6
CONTINUOUS
 62
    16
  5
4FF
 10
-6680.507341
 20
-4062.50536
 30
0.001526
 40
2.293157
 50
12.163099
 51
12.706491
  0
ARC
  8
1
  6
CONTINUOUS
 62
    16
  5
500
 10
-6680.446004
 20
-4062.491819
 30
0.001526
 40
2.230343
 50
12.713738
 51
13.831684
  0
ARC
  8
1
  6
CONTINUOUS
 62
    16
  5
501
 10
-6680.576706
 20
-4062.523801
 30
0.001526
 40
2.364901
 50
13.827024
 51
14.881488
  0
ARC
  8
1
  6
CONTINUOUS
 62
    16
  5
502
 10
-6680.671858
 20
-4062.54872
 30
0.001526
 40
2.463261
 50
14.87325
 51
25.01005
  0
ARC
  8
1
  6
CONTINUOUS
 62
    16
  5
503
 10
-6680.697286
 20
-4062.56159
 30
0.001526
 40
2.491746
 50
25.031052
 51
57.508978
  0
ARC
  8
1
  6
CONTINUOUS
 62
    16
  5
504
 10
-6680.757844
 20
-4062.63919
 30
0.001526
 40
2.589747
 50
57.301118
 51
102.841351
  0
ARC
  8
1
  6
CONTINUOUS
 62
    16
  5
505
 10
-6680.766654
 20
-4062.629261
 30
0.001526
 40
2.578116
 50
102.699493
 51
136.436938
  0
ARC
  8
1
  6
CONTINUOUS
 62
    16
  5
506
 10
-6680.833212
 20
-4062.554024
 30
0.001526
 40
2.478053
 50
136.636928
 51
173.348562
  0
ARC
  8
1
  6
CONTINUOUS
 62
    16
  5
507
 10
-6680.901856
 20
-4062.538037
 30
0.001526
 40
2.408031
 50
173.537209
 51
180.041971
  0
ARC
  8
1
  6
CONTINUOUS
 62
    16
  5
508
 10
-6683.251162
 20
-4061.365169
 30
0.001526
 40
4.741527
 50
359.956219
 51
0.077916
  0
ARC
  8
1
  6
CONTINUOUS
 62
    16
  5
509
 10
-6682.981676
 20
-4061.365231
 30
0.001526
 40
4.472041
 50
0.083403
 51
0.212434
  0
ARC
  8
1
  6
CONTINUOUS
 62
    16
  5
50A
 10
-6682.740781
 20
-4061.363783
 30
0.001526
 40
4.231142
 50
0.204924
 51
0.341288
  0
ARC
  8
1
  6
CONTINUOUS
 62
    16
  5
50B
 10
-6682.518905
 20
-4061.362605
 30
0.001526
 40
4.009263
 50
0.34334
 51
0.487267
  0
ARC
  8
1
  6
CONTINUOUS
 62
    16
  5
50C
 10
-6682.287022
 20
-4061.360703
 30
0.001526
 40
3.777372
 50
0.488331
 51
0.733099
  0
ARC
  8
1
  6
CONTINUOUS
 62
    16
  5
50D
 10
-6682.04501
 20
-4061.35788
 30
0.001526
 40
3.535344
 50
0.737539
 51
0.934178
  0
ARC
  8
1
  6
CONTINUOUS
 62
    16
  5
50E
 10
-6681.861347
 20
-4061.354673
 30
0.001526
 40
3.351654
 50
0.930539
 51
1.137949
  0
ARC
  8
1
  6
CONTINUOUS
 62
    16
  5
50F
 10
-6681.657371
 20
-4061.350634
 30
0.001526
 40
3.147638
 50
1.13819
 51
1.432002
  0
ARC
  8
1
  6
CONTINUOUS
 62
    16
  5
510
 10
-6681.4639
 20
-4061.345897
 30
0.001526
 40
2.954108
 50
1.433918
 51
1.746982
  0
ARC
  8
1
  6
CONTINUOUS
 62
    16
  5
511
 10
-6681.292808
 20
-4061.340703
 30
0.001526
 40
2.782937
 50
1.747489
 51
2.079804
  0
ARC
  8
1
  6
CONTINUOUS
 62
    16
  5
512
 10
-6681.140437
 20
-4061.335129
 30
0.001526
 40
2.630465
 50
2.078931
 51
2.430498
  0
ARC
  8
1
  6
CONTINUOUS
 62
    16
  5
513
 10
-6681.004048
 20
-4061.329391
 30
0.001526
 40
2.493955
 50
2.43166
 51
2.802478
  0
ARC
  8
1
  6
CONTINUOUS
 62
    16
  5
514
 10
-6680.880559
 20
-4061.323221
 30
0.001526
 40
2.370312
 50
2.799465
 51
3.189534
  0
ARC
  8
1
  6
CONTINUOUS
 62
    16
  5
515
 10
-6680.769289
 20
-4061.317103
 30
0.001526
 40
2.258874
 50
3.191615
 51
3.600935
  0
ARC
  8
1
  6
CONTINUOUS
 62
    16
  5
516
 10
-6680.666927
 20
-4061.310685
 30
0.001526
 40
2.156311
 50
3.601564
 51
4.030365
  0
ARC
  8
1
  6
CONTINUOUS
 62
    16
  5
517
 10
-6680.573288
 20
-4061.304072
 30
0.001526
 40
2.062439
 50
4.029959
 51
4.478241
  0
ARC
  8
1
  6
CONTINUOUS
 62
    16
  5
518
 10
-6680.505154
 20
-4061.29875
 30
0.001526
 40
1.994097
 50
4.47863
 51
9.349642
  0
ARC
  8
1
  6
CONTINUOUS
 62
    16
  5
519
 10
-6680.674216
 20
-4061.323866
 30
0.001526
 40
2.164996
 50
9.278631
 51
11.309828
  0
ARC
  8
1
  6
CONTINUOUS
 62
    16
  5
51A
 10
-6680.713692
 20
-4061.331539
 30
0.001526
 40
2.20521
 50
11.30417
 51
84.066056
  0
ARC
  8
1
  6
CONTINUOUS
 62
    16
  5
51B
 10
-6680.757133
 20
-4061.402812
 30
0.001526
 40
2.280874
 50
83.165715
 51
150.714049
  0
ARC
  8
1
  6
CONTINUOUS
 62
    16
  5
51C
 10
-6680.854132
 20
-4061.318332
 30
0.001526
 40
2.155107
 50
151.411527
 51
181.272182
  0
ARC
  8
1
  6
CONTINUOUS
 62
    16
  5
51D
 10
-6680.759887
 20
-4059.890546
 30
0.001526
 40
1.9
 50
45.783748
 51
134.216252
  0
ARC
  8
1
  6
CONTINUOUS
 62
    16
  5
51E
 10
-6680.759887
 20
-4059.890546
 30
0.001526
 40
2.6
 50
329.769314
 51
81.150117
  0
ARC
  8
1
  6
CONTINUOUS
 62
    16
  5
51F
 10
-6680.759887
 20
-4059.890546
 30
0.001526
 40
3.0
 50
323.066669
 51
0.0
  0
ARC
  8
1
  6
CONTINUOUS
 62
    16
  5
520
 10
-6680.759887
 20
-4059.890546
 30
0.001526
 40
4.0
 50
309.605652
 51
90.0
  0
ARC
  8
1
  6
CONTINUOUS
 62
    16
  5
521
 10
-6680.759887
 20
-4059.890546
 30
0.001526
 40
2.5
 50
333.098269
 51
206.892906
  0
ARC
  8
1
  6
CONTINUOUS
 62
    16
  5
522
 10
-6680.759887
 20
-4059.890546
 30
0.001526
 40
3.0
 50
0.0
 51
82.337744
  0
ARC
  8
1
  6
CONTINUOUS
 62
    16
  5
523
 10
-6680.759887
 20
-4059.890546
 30
0.001526
 40
3.0
 50
82.337744
 51
97.662256
  0
ARC
  8
1
  6
CONTINUOUS
 62
    16
  5
524
 10
-6680.759887
 20
-4059.890546
 30
0.001526
 40
2.7
 50
81.480376
 51
98.519624
  0
ARC
  8
1
  6
CONTINUOUS
 62
    16
  5
525
 10
-6680.759887
 20
-4059.890546
 30
0.001526
 40
3.0
 50
97.662256
 51
180.0
  0
ARC
  8
1
  6
CONTINUOUS
 62
    16
  5
526
 10
-6680.759887
 20
-4059.890546
 30
0.001526
 40
4.0
 50
90.0
 51
230.394348
  0
ARC
  8
1
  6
CONTINUOUS
 62
    16
  5
527
 10
-6680.759887
 20
-4059.890546
 30
0.001526
 40
3.0
 50
180.0
 51
216.933334
  0
ARC
  8
1
  6
CONTINUOUS
 62
    16
  5
528
 10
-6680.759887
 20
-4059.890546
 30
0.001526
 40
2.6
 50
98.849883
 51
210.19154
  0
LINE
  8
1
  6
CONTINUOUS
 62
    16
  5
529
 10
-6678.209887
 20
-4063.644796
 30
0.001526
 11
-6678.209887
 21
-4062.539801
 31
0.001526
  0
LINE
  8
1
  6
CONTINUOUS
 62
    16
  5
52A
 10
-6683.309887
 20
-4063.644796
 30
0.001526
 11
-6683.309887
 21
-4062.539801
 31
0.001526
  0
LINE
  8
1
  6
CONTINUOUS
 62
    16
  5
52B
 10
-6683.028697
 20
-4060.940546
 30
0.001526
 11
-6682.976347
 21
-4060.940546
 31
0.001526
  0
LINE
  8
1
  6
CONTINUOUS
 62
    16
  5
52C
 10
-6683.11095
 20
-4060.740546
 30
0.001526
 11
-6682.930559
 21
-4060.740546
 31
0.001526
  0
LINE
  8
1
  6
CONTINUOUS
 62
    16
  5
52D
 10
-6678.543426
 20
-4060.940546
 30
0.001526
 11
-6678.491076
 21
-4060.940546
 31
0.001526
  0
LINE
  8
1
  6
CONTINUOUS
 62
    16
  5
52E
 10
-6678.589214
 20
-4060.740546
 30
0.001526
 11
-6678.408823
 21
-4060.740546
 31
0.001526
  0
LINE
  8
1
  6
CONTINUOUS
 62
    16
  5
52F
 10
-6678.209887
 20
-4063.037105
 30
0.001526
 11
-6676.759887
 21
-4062.199947
 31
0.001526
  0
LINE
  8
1
  6
CONTINUOUS
 62
    16
  5
530
 10
-6682.084887
 20
-4058.840546
 30
0.001526
 11
-6683.028697
 21
-4058.840546
 31
0.001526
  0
LINE
  8
1
  6
CONTINUOUS
 62
    16
  5
531
 10
-6682.084887
 20
-4059.040546
 30
0.001526
 11
-6683.11095
 21
-4059.040546
 31
0.001526
  0
LINE
  8
1
  6
CONTINUOUS
 62
    16
  5
532
 10
-6679.434887
 20
-4058.840546
 30
0.001526
 11
-6678.491076
 21
-4058.840546
 31
0.001526
  0
LINE
  8
1
  6
CONTINUOUS
 62
    16
  5
533
 10
-6679.434887
 20
-4059.040546
 30
0.001526
 11
-6678.408823
 21
-4059.040546
 31
0.001526
  0
LINE
  8
1
  6
CONTINUOUS
 62
    16
  5
534
 10
-6682.084887
 20
-4059.543068
 30
0.001526
 11
-6682.084887
 21
-4057.770552
 31
0.001526
  0
LINE
  8
1
  6
CONTINUOUS
 62
    16
  5
535
 10
-6679.434887
 20
-4059.543068
 30
0.001526
 11
-6679.434887
 21
-4057.770552
 31
0.001526
  0
LINE
  8
1
  6
CONTINUOUS
 62
    16
  5
536
 10
-6684.759887
 20
-4062.199947
 30
0.001526
 11
-6683.309887
 21
-4063.037105
 31
0.001526
  0
LINE
  8
1
  6
CONTINUOUS
 62
    16
  5
537
 10
-6676.759887
 20
-4062.199947
 30
0.001526
 11
-6676.759887
 21
-4059.890546
 31
0.001526
  0
LINE
  8
1
  6
CONTINUOUS
 62
    16
  5
538
 10
-6676.759887
 20
-4057.581145
 30
0.001526
 11
-6680.759887
 21
-4055.271744
 31
0.001526
  0
LINE
  8
1
  6
CONTINUOUS
 62
    16
  5
539
 10
-6676.759887
 20
-4059.890546
 30
0.001526
 11
-6676.759887
 21
-4057.581145
 31
0.001526
  0
LINE
  8
1
  6
CONTINUOUS
 62
    16
  5
53A
 10
-6684.759887
 20
-4059.890546
 30
0.001526
 11
-6684.759887
 21
-4062.199947
 31
0.001526
  0
LINE
  8
1
  6
CONTINUOUS
 62
    16
  5
53B
 10
-6680.759887
 20
-4055.271744
 30
0.001526
 11
-6684.759887
 21
-4057.581145
 31
0.001526
  0
LINE
  8
1
  6
CONTINUOUS
 62
    16
  5
53C
 10
-6684.759887
 20
-4057.581145
 30
0.001526
 11
-6684.759887
 21
-4059.890546
 31
0.001526
  0
LINE
  8
1
  6
CONTINUOUS
 62
    16
  5
53D
 10
-6680.359887
 20
-4056.917333
 30
0.001526
 11
-6680.359887
 21
-4057.390546
 31
0.001526
  0
LINE
  8
1
  6
CONTINUOUS
 62
    16
  5
53E
 10
-6681.159887
 20
-4057.390546
 30
0.001526
 11
-6681.159887
 21
-4056.917333
 31
0.001526
  0
LINE
  8
1
  6
CONTINUOUS
 62
    16
  5
53F
 10
-6681.159887
 20
-4057.390546
 30
0.001526
 11
-6680.359887
 21
-4057.390546
 31
0.001526
  0
CIRCLE
  8
1
  6
CONTINUOUS
 62
    16
  5
540
 10
-6732.259887
 20
-4059.890546
 30
0.0
 40
16.5
  0
CIRCLE
  8
1
  6
CONTINUOUS
 62
    16
  5
541
 10
-6732.259887
 20
-4059.890546
 30
0.0
 40
16.0
  0
CIRCLE
  8
1
  6
CONTINUOUS
 62
    16
  5
542
 10
-6732.259887
 20
-4050.890546
 30
0.0
 40
6.0
  0
ARC
  8
1
  6
CONTINUOUS
 62
    16
  5
543
 10
-6764.759887
 20
-4072.890546
 30
0.0
 40
1.5
 50
270.0
 51
0.0
  0
LINE
  8
1
  6
CONTINUOUS
 62
    16
  5
544
 10
-6763.259887
 20
-4046.890546
 30
0.0
 11
-6763.259887
 21
-4072.890546
 31
0.0
  0
ARC
  8
1
  6
CONTINUOUS
 62
    16
  5
545
 10
-6764.759887
 20
-4046.890546
 30
0.0
 40
1.5
 50
0.0
 51
90.0
  0
LINE
  8
1
  6
CONTINUOUS
 62
    16
  5
546
 10
-6801.759887
 20
-4045.390546
 30
0.0
 11
-6764.759887
 21
-4045.390546
 31
0.0
  0
ARC
  8
1
  6
CONTINUOUS
 62
    16
  5
547
 10
-6801.759887
 20
-4046.890546
 30
0.0
 40
1.5
 50
90.0
 51
180.0
  0
LINE
  8
1
  6
CONTINUOUS
 62
    16
  5
548
 10
-6803.259887
 20
-4046.890546
 30
0.0
 11
-6803.259887
 21
-4072.890546
 31
0.0
  0
ARC
  8
1
  6
CONTINUOUS
 62
    16
  5
549
 10
-6801.759887
 20
-4072.890546
 30
0.0
 40
1.5
 50
180.0
 51
270.0
  0
LINE
  8
1
  6
CONTINUOUS
 62
    16
  5
54A
 10
-6801.759887
 20
-4074.390546
 30
0.0
 11
-6764.759887
 21
-4074.390546
 31
0.0
  0
LINE
  8
1
  6
CONTINUOUS
 62
    16
  5
54B
 10
-6744.987809
 20
-4049.390546
 30
0.0
 11
-6763.259887
 21
-4049.390546
 31
0.0
  0
LINE
  8
1
  6
CONTINUOUS
 62
    16
  5
54C
 10
-6783.259887
 20
-4045.390546
 30
0.0
 11
-6783.259887
 21
-4074.390546
 31
0.0
  0
LINE
  8
1
  6
CONTINUOUS
 62
    16
  5
54D
 10
-6768.259887
 20
-4045.390546
 30
0.0
 11
-6768.259887
 21
-4074.390546
 31
0.0
  0
LINE
  8
1
  6
CONTINUOUS
 62
    16
  5
54E
 10
-6798.259887
 20
-4045.390546
 30
0.0
 11
-6798.259887
 21
-4074.390546
 31
0.0
  0
LINE
  8
1
  6
CONTINUOUS
 62
    16
  5
54F
 10
-7032.609887
 20
-3778.735497
 30
0.0
 11
-7032.609887
 21
-3775.735497
 31
0.0
  0
LINE
  8
1
  6
CONTINUOUS
 62
    16
  5
550
 10
-7032.609887
 20
-3778.735497
 30
0.0
 11
-7040.109887
 21
-3778.735497
 31
0.0
  0
LINE
  8
1
  6
CONTINUOUS
 62
    16
  5
551
 10
-7040.109887
 20
-3778.735497
 30
0.0
 11
-7040.109887
 21
-3775.735497
 31
0.0
  0
LINE
  8
1
  6
CONTINUOUS
 62
    16
  5
552
 10
-7014.359887
 20
-3778.735497
 30
0.0
 11
-7014.359887
 21
-3775.735497
 31
0.0
  0
LINE
  8
1
  6
CONTINUOUS
 62
    16
  5
553
 10
-7014.359887
 20
-3778.735497
 30
0.0
 11
-7021.859887
 21
-3778.735497
 31
0.0
  0
LINE
  8
1
  6
CONTINUOUS
 62
    16
  5
554
 10
-7021.859887
 20
-3778.735497
 30
0.0
 11
-7021.859887
 21
-3775.735497
 31
0.0
  0
LINE
  8
1
  6
CONTINUOUS
 62
    16
  5
555
 10
-6996.109887
 20
-3778.735497
 30
0.0
 11
-6996.109887
 21
-3775.735497
 31
0.0
  0
LINE
  8
1
  6
CONTINUOUS
 62
    16
  5
556
 10
-6996.109887
 20
-3778.735497
 30
0.0
 11
-7003.609887
 21
-3778.735497
 31
0.0
  0
LINE
  8
1
  6
CONTINUOUS
 62
    16
  5
557
 10
-7003.609887
 20
-3778.735497
 30
0.0
 11
-7003.609887
 21
-3775.735497
 31
0.0
  0
LINE
  8
1
  6
CONTINUOUS
 62
    16
  5
558
 10
-6977.859887
 20
-3778.735497
 30
0.0
 11
-6977.859887
 21
-3775.735497
 31
0.0
  0
LINE
  8
1
  6
CONTINUOUS
 62
    16
  5
559
 10
-6977.859887
 20
-3778.735497
 30
0.0
 11
-6985.359887
 21
-3778.735497
 31
0.0
  0
LINE
  8
1
  6
CONTINUOUS
 62
    16
  5
55A
 10
-6985.359887
 20
-3778.735497
 30
0.0
 11
-6985.359887
 21
-3775.735497
 31
0.0
  0
LINE
  8
1
  6
CONTINUOUS
 62
    16
  5
55B
 10
-6628.759887
 20
-3775.735497
 30
0.0
 11
-7111.359887
 21
-3775.735497
 31
0.0
  0
ARC
  8
1
  6
CONTINUOUS
 62
    16
  5
55C
 10
-6726.309887
 20
-3619.235497
 30
0.0
 40
1.0
 50
270.0
 51
90.0
  0
ARC
  8
1
  6
CONTINUOUS
 62
    16
  5
55D
 10
-6754.309887
 20
-3619.235497
 30
0.0
 40
1.0
 50
90.0
 51
270.0
  0
LINE
  8
1
  6
CONTINUOUS
 62
    16
  5
55E
 10
-6754.309887
 20
-3620.235497
 30
0.0
 11
-6726.309887
 21
-3620.235497
 31
0.0
  0
LINE
  8
1
  6
CONTINUOUS
 62
    16
  5
55F
 10
-6754.309887
 20
-3618.235497
 30
0.0
 11
-6726.309887
 21
-3618.235497
 31
0.0
  0
LINE
  8
1
  6
CONTINUOUS
 62
    16
  5
560
 10
-6685.559887
 20
-3772.735497
 30
0.0
 11
-6655.559887
 21
-3772.735497
 31
0.0
  0
LINE
  8
1
  6
CONTINUOUS
 62
    16
  5
561
 10
-6685.559887
 20
-3772.735497
 30
0.0
 11
-6685.559887
 21
-3772.485497
 31
0.0
  0
LINE
  8
1
  6
CONTINUOUS
 62
    16
  5
562
 10
-6628.759887
 20
-3775.735497
 30
0.0
 11
-6628.759887
 21
-3772.735497
 31
0.0
  0
CIRCLE
  8
1
  6
CONTINUOUS
 62
    16
  5
563
 10
-6870.059887
 20
-3766.735497
 30
0.0
 40
2.25
  0
CIRCLE
  8
1
  6
CONTINUOUS
 62
    16
  5
564
 10
-6680.559568
 20
-3727.735497
 30
0.0
 40
2.25
  0
ARC
  8
1
  6
CONTINUOUS
 62
    16
  5
565
 10
-6726.309887
 20
-3675.235497
 30
0.0
 40
1.0
 50
270.0
 51
90.0
  0
ARC
  8
1
  6
CONTINUOUS
 62
    16
  5
566
 10
-6726.309887
 20
-3668.235497
 30
0.0
 40
1.0
 50
270.0
 51
90.0
  0
ARC
  8
1
  6
CONTINUOUS
 62
    16
  5
567
 10
-6726.309887
 20
-3661.235497
 30
0.0
 40
1.0
 50
270.0
 51
90.0
  0
ARC
  8
1
  6
CONTINUOUS
 62
    16
  5
568
 10
-6754.309887
 20
-3675.235497
 30
0.0
 40
1.0
 50
90.0
 51
270.0
  0
ARC
  8
1
  6
CONTINUOUS
 62
    16
  5
569
 10
-6754.309887
 20
-3668.235497
 30
0.0
 40
1.0
 50
90.0
 51
270.0
  0
ARC
  8
1
  6
CONTINUOUS
 62
    16
  5
56A
 10
-6754.309887
 20
-3661.235497
 30
0.0
 40
1.0
 50
90.0
 51
270.0
  0
LINE
  8
1
  6
CONTINUOUS
 62
    16
  5
56B
 10
-6754.309887
 20
-3676.235497
 30
0.0
 11
-6726.309887
 21
-3676.235497
 31
0.0
  0
LINE
  8
1
  6
CONTINUOUS
 62
    16
  5
56C
 10
-6754.309887
 20
-3674.235497
 30
0.0
 11
-6726.309887
 21
-3674.235497
 31
0.0
  0
LINE
  8
1
  6
CONTINUOUS
 62
    16
  5
56D
 10
-6754.309887
 20
-3662.235497
 30
0.0
 11
-6726.309887
 21
-3662.235497
 31
0.0
  0
LINE
  8
1
  6
CONTINUOUS
 62
    16
  5
56E
 10
-6754.309887
 20
-3660.235497
 30
0.0
 11
-6726.309887
 21
-3660.235497
 31
0.0
  0
LINE
  8
1
  6
CONTINUOUS
 62
    16
  5
56F
 10
-6754.309887
 20
-3669.235497
 30
0.0
 11
-6726.309887
 21
-3669.235497
 31
0.0
  0
LINE
  8
1
  6
CONTINUOUS
 62
    16
  5
570
 10
-6754.309887
 20
-3667.235497
 30
0.0
 11
-6726.309887
 21
-3667.235497
 31
0.0
  0
ARC
  8
1
  6
CONTINUOUS
 62
    16
  5
571
 10
-6726.309887
 20
-3696.235497
 30
0.0
 40
1.0
 50
270.0
 51
90.0
  0
ARC
  8
1
  6
CONTINUOUS
 62
    16
  5
572
 10
-6754.309887
 20
-3696.235497
 30
0.0
 40
1.0
 50
90.0
 51
270.0
  0
LINE
  8
1
  6
CONTINUOUS
 62
    16
  5
573
 10
-6754.309887
 20
-3690.235497
 30
0.0
 11
-6726.309887
 21
-3690.235497
 31
0.0
  0
LINE
  8
1
  6
CONTINUOUS
 62
    16
  5
574
 10
-6754.309887
 20
-3697.235497
 30
0.0
 11
-6726.309887
 21
-3697.235497
 31
0.0
  0
LINE
  8
1
  6
CONTINUOUS
 62
    16
  5
575
 10
-6754.309887
 20
-3695.235497
 30
0.0
 11
-6726.309887
 21
-3695.235497
 31
0.0
  0
ARC
  8
1
  6
CONTINUOUS
 62
    16
  5
576
 10
-6726.309887
 20
-3682.235497
 30
0.0
 40
1.0
 50
270.0
 51
90.0
  0
ARC
  8
1
  6
CONTINUOUS
 62
    16
  5
577
 10
-6754.309887
 20
-3682.235497
 30
0.0
 40
1.0
 50
90.0
 51
270.0
  0
LINE
  8
1
  6
CONTINUOUS
 62
    16
  5
578
 10
-6754.309887
 20
-3683.235497
 30
0.0
 11
-6726.309887
 21
-3683.235497
 31
0.0
  0
LINE
  8
1
  6
CONTINUOUS
 62
    16
  5
579
 10
-6754.309887
 20
-3681.235497
 30
0.0
 11
-6726.309887
 21
-3681.235497
 31
0.0
  0
LINE
  8
1
  6
CONTINUOUS
 62
    16
  5
57A
 10
-6754.309887
 20
-3688.235497
 30
0.0
 11
-6726.309887
 21
-3688.235497
 31
0.0
  0
ARC
  8
1
  6
CONTINUOUS
 62
    16
  5
57B
 10
-6754.309887
 20
-3689.235497
 30
0.0
 40
1.0
 50
90.0
 51
270.0
  0
ARC
  8
1
  6
CONTINUOUS
 62
    16
  5
57C
 10
-6726.309887
 20
-3689.235497
 30
0.0
 40
1.0
 50
270.0
 51
90.0
  0
ARC
  8
1
  6
CONTINUOUS
 62
    16
  5
57D
 10
-6726.309887
 20
-3717.235497
 30
0.0
 40
1.0
 50
270.0
 51
90.0
  0
ARC
  8
1
  6
CONTINUOUS
 62
    16
  5
57E
 10
-6726.309887
 20
-3710.235497
 30
0.0
 40
1.0
 50
270.0
 51
90.0
  0
ARC
  8
1
  6
CONTINUOUS
 62
    16
  5
57F
 10
-6726.309887
 20
-3703.235497
 30
0.0
 40
1.0
 50
270.0
 51
90.0
  0
ARC
  8
1
  6
CONTINUOUS
 62
    16
  5
580
 10
-6754.309887
 20
-3717.235497
 30
0.0
 40
1.0
 50
90.0
 51
270.0
  0
ARC
  8
1
  6
CONTINUOUS
 62
    16
  5
581
 10
-6754.309887
 20
-3710.235497
 30
0.0
 40
1.0
 50
90.0
 51
270.0
  0
ARC
  8
1
  6
CONTINUOUS
 62
    16
  5
582
 10
-6754.309887
 20
-3703.235497
 30
0.0
 40
1.0
 50
90.0
 51
270.0
  0
LINE
  8
1
  6
CONTINUOUS
 62
    16
  5
583
 10
-6754.309887
 20
-3709.235497
 30
0.0
 11
-6726.309887
 21
-3709.235497
 31
0.0
  0
LINE
  8
1
  6
CONTINUOUS
 62
    16
  5
584
 10
-6754.309887
 20
-3711.235497
 30
0.0
 11
-6726.309887
 21
-3711.235497
 31
0.0
  0
LINE
  8
1
  6
CONTINUOUS
 62
    16
  5
585
 10
-6754.309887
 20
-3702.235497
 30
0.0
 11
-6726.309887
 21
-3702.235497
 31
0.0
  0
LINE
  8
1
  6
CONTINUOUS
 62
    16
  5
586
 10
-6754.309887
 20
-3704.235497
 30
0.0
 11
-6726.309887
 21
-3704.235497
 31
0.0
  0
LINE
  8
1
  6
CONTINUOUS
 62
    16
  5
587
 10
-6754.309887
 20
-3716.235497
 30
0.0
 11
-6726.309887
 21
-3716.235497
 31
0.0
  0
LINE
  8
1
  6
CONTINUOUS
 62
    16
  5
588
 10
-6754.309887
 20
-3718.235497
 30
0.0
 11
-6726.309887
 21
-3718.235497
 31
0.0
  0
ARC
  8
1
  6
CONTINUOUS
 62
    16
  5
589
 10
-6726.309887
 20
-3738.235497
 30
0.0
 40
1.0
 50
270.0
 51
90.0
  0
ARC
  8
1
  6
CONTINUOUS
 62
    16
  5
58A
 10
-6726.309887
 20
-3731.235497
 30
0.0
 40
1.0
 50
270.0
 51
90.0
  0
ARC
  8
1
  6
CONTINUOUS
 62
    16
  5
58B
 10
-6754.309887
 20
-3738.235497
 30
0.0
 40
1.0
 50
90.0
 51
270.0
  0
ARC
  8
1
  6
CONTINUOUS
 62
    16
  5
58C
 10
-6754.309887
 20
-3731.235497
 30
0.0
 40
1.0
 50
90.0
 51
270.0
  0
LINE
  8
1
  6
CONTINUOUS
 62
    16
  5
58D
 10
-6754.309887
 20
-3725.235497
 30
0.0
 11
-6726.309887
 21
-3725.235497
 31
0.0
  0
LINE
  8
1
  6
CONTINUOUS
 62
    16
  5
58E
 10
-6754.309887
 20
-3737.235497
 30
0.0
 11
-6726.309887
 21
-3737.235497
 31
0.0
  0
LINE
  8
1
  6
CONTINUOUS
 62
    16
  5
58F
 10
-6754.309887
 20
-3739.235497
 30
0.0
 11
-6726.309887
 21
-3739.235497
 31
0.0
  0
LINE
  8
1
  6
CONTINUOUS
 62
    16
  5
590
 10
-6754.309887
 20
-3730.235497
 30
0.0
 11
-6726.309887
 21
-3730.235497
 31
0.0
  0
LINE
  8
1
  6
CONTINUOUS
 62
    16
  5
591
 10
-6754.309887
 20
-3732.235497
 30
0.0
 11
-6726.309887
 21
-3732.235497
 31
0.0
  0
LINE
  8
1
  6
CONTINUOUS
 62
    16
  5
592
 10
-6754.309887
 20
-3723.235497
 30
0.0
 11
-6726.309887
 21
-3723.235497
 31
0.0
  0
ARC
  8
1
  6
CONTINUOUS
 62
    16
  5
593
 10
-6754.309887
 20
-3724.235497
 30
0.0
 40
1.0
 50
90.0
 51
270.0
  0
ARC
  8
1
  6
CONTINUOUS
 62
    16
  5
594
 10
-6726.309887
 20
-3724.235497
 30
0.0
 40
1.0
 50
270.0
 51
90.0
  0
ARC
  8
1
  6
CONTINUOUS
 62
    16
  5
595
 10
-6726.309887
 20
-3654.235497
 30
0.0
 40
1.0
 50
270.0
 51
90.0
  0
ARC
  8
1
  6
CONTINUOUS
 62
    16
  5
596
 10
-6726.309887
 20
-3647.235497
 30
0.0
 40
1.0
 50
270.0
 51
90.0
  0
ARC
  8
1
  6
CONTINUOUS
 62
    16
  5
597
 10
-6754.309887
 20
-3654.235497
 30
0.0
 40
1.0
 50
90.0
 51
270.0
  0
ARC
  8
1
  6
CONTINUOUS
 62
    16
  5
598
 10
-6754.309887
 20
-3647.235497
 30
0.0
 40
1.0
 50
90.0
 51
270.0
  0
LINE
  8
1
  6
CONTINUOUS
 62
    16
  5
599
 10
-6754.309887
 20
-3648.235497
 30
0.0
 11
-6726.309887
 21
-3648.235497
 31
0.0
  0
LINE
  8
1
  6
CONTINUOUS
 62
    16
  5
59A
 10
-6754.309887
 20
-3646.235497
 30
0.0
 11
-6726.309887
 21
-3646.235497
 31
0.0
  0
LINE
  8
1
  6
CONTINUOUS
 62
    16
  5
59B
 10
-6754.309887
 20
-3655.235497
 30
0.0
 11
-6726.309887
 21
-3655.235497
 31
0.0
  0
LINE
  8
1
  6
CONTINUOUS
 62
    16
  5
59C
 10
-6754.309887
 20
-3653.235497
 30
0.0
 11
-6726.309887
 21
-3653.235497
 31
0.0
  0
ARC
  8
1
  6
CONTINUOUS
 62
    16
  5
59D
 10
-6726.309887
 20
-3640.235497
 30
0.0
 40
1.0
 50
270.0
 51
90.0
  0
ARC
  8
1
  6
CONTINUOUS
 62
    16
  5
59E
 10
-6726.309887
 20
-3633.235497
 30
0.0
 40
1.0
 50
270.0
 51
90.0
  0
ARC
  8
1
  6
CONTINUOUS
 62
    16
  5
59F
 10
-6726.309887
 20
-3626.235497
 30
0.0
 40
1.0
 50
270.0
 51
90.0
  0
ARC
  8
1
  6
CONTINUOUS
 62
    16
  5
5A0
 10
-6754.309887
 20
-3640.235497
 30
0.0
 40
1.0
 50
90.0
 51
270.0
  0
ARC
  8
1
  6
CONTINUOUS
 62
    16
  5
5A1
 10
-6754.309887
 20
-3633.235497
 30
0.0
 40
1.0
 50
90.0
 51
270.0
  0
ARC
  8
1
  6
CONTINUOUS
 62
    16
  5
5A2
 10
-6754.309887
 20
-3626.235497
 30
0.0
 40
1.0
 50
90.0
 51
270.0
  0
LINE
  8
1
  6
CONTINUOUS
 62
    16
  5
5A3
 10
-6754.309887
 20
-3634.235497
 30
0.0
 11
-6726.309887
 21
-3634.235497
 31
0.0
  0
LINE
  8
1
  6
CONTINUOUS
 62
    16
  5
5A4
 10
-6754.309887
 20
-3632.235497
 30
0.0
 11
-6726.309887
 21
-3632.235497
 31
0.0
  0
LINE
  8
1
  6
CONTINUOUS
 62
    16
  5
5A5
 10
-6754.309887
 20
-3627.235497
 30
0.0
 11
-6726.309887
 21
-3627.235497
 31
0.0
  0
LINE
  8
1
  6
CONTINUOUS
 62
    16
  5
5A6
 10
-6754.309887
 20
-3625.235497
 30
0.0
 11
-6726.309887
 21
-3625.235497
 31
0.0
  0
LINE
  8
1
  6
CONTINUOUS
 62
    16
  5
5A7
 10
-6754.309887
 20
-3641.235497
 30
0.0
 11
-6726.309887
 21
-3641.235497
 31
0.0
  0
LINE
  8
1
  6
CONTINUOUS
 62
    16
  5
5A8
 10
-6754.309887
 20
-3639.235497
 30
0.0
 11
-6726.309887
 21
-3639.235497
 31
0.0
  0
LINE
  8
1
  6
CONTINUOUS
 62
    16
  5
5A9
 10
-6949.359887
 20
-3778.735497
 30
0.0
 11
-6949.359887
 21
-3775.735497
 31
0.0
  0
LINE
  8
1
  6
CONTINUOUS
 62
    16
  5
5AA
 10
-6949.359887
 20
-3778.735497
 30
0.0
 11
-6956.859887
 21
-3778.735497
 31
0.0
  0
LINE
  8
1
  6
CONTINUOUS
 62
    16
  5
5AB
 10
-6956.859887
 20
-3778.735497
 30
0.0
 11
-6956.859887
 21
-3775.735497
 31
0.0
  0
LINE
  8
1
  6
CONTINUOUS
 62
    16
  5
5AC
 10
-6931.109887
 20
-3778.735497
 30
0.0
 11
-6931.109887
 21
-3775.735497
 31
0.0
  0
LINE
  8
1
  6
CONTINUOUS
 62
    16
  5
5AD
 10
-6931.109887
 20
-3778.735497
 30
0.0
 11
-6938.609887
 21
-3778.735497
 31
0.0
  0
LINE
  8
1
  6
CONTINUOUS
 62
    16
  5
5AE
 10
-6938.609887
 20
-3778.735497
 30
0.0
 11
-6938.609887
 21
-3775.735497
 31
0.0
  0
LINE
  8
1
  6
CONTINUOUS
 62
    16
  5
5AF
 10
-6919.039887
 20
-3778.735497
 30
0.0
 11
-6919.039887
 21
-3775.735497
 31
0.0
  0
LINE
  8
1
  6
CONTINUOUS
 62
    16
  5
5B0
 10
-6919.039887
 20
-3778.735497
 30
0.0
 11
-6926.539887
 21
-3778.735497
 31
0.0
  0
LINE
  8
1
  6
CONTINUOUS
 62
    16
  5
5B1
 10
-6926.539887
 20
-3778.735497
 30
0.0
 11
-6926.539887
 21
-3775.735497
 31
0.0
  0
LINE
  8
1
  6
CONTINUOUS
 62
    16
  5
5B2
 10
-6906.969887
 20
-3778.735497
 30
0.0
 11
-6906.969887
 21
-3775.735497
 31
0.0
  0
LINE
  8
1
  6
CONTINUOUS
 62
    16
  5
5B3
 10
-6906.969887
 20
-3778.735497
 30
0.0
 11
-6914.469887
 21
-3778.735497
 31
0.0
  0
LINE
  8
1
  6
CONTINUOUS
 62
    16
  5
5B4
 10
-6914.469887
 20
-3778.735497
 30
0.0
 11
-6914.469887
 21
-3775.735497
 31
0.0
  0
LINE
  8
1
  6
CONTINUOUS
 62
    16
  5
5B5
 10
-6894.899887
 20
-3778.735497
 30
0.0
 11
-6894.899887
 21
-3775.735497
 31
0.0
  0
LINE
  8
1
  6
CONTINUOUS
 62
    16
  5
5B6
 10
-6894.899887
 20
-3778.735497
 30
0.0
 11
-6902.399887
 21
-3778.735497
 31
0.0
  0
LINE
  8
1
  6
CONTINUOUS
 62
    16
  5
5B7
 10
-6902.399887
 20
-3778.735497
 30
0.0
 11
-6902.399887
 21
-3775.735497
 31
0.0
  0
LINE
  8
1
  6
CONTINUOUS
 62
    16
  5
5B8
 10
-6882.829887
 20
-3778.735497
 30
0.0
 11
-6882.829887
 21
-3775.735497
 31
0.0
  0
LINE
  8
1
  6
CONTINUOUS
 62
    16
  5
5B9
 10
-6882.829887
 20
-3778.735497
 30
0.0
 11
-6890.329887
 21
-3778.735497
 31
0.0
  0
LINE
  8
1
  6
CONTINUOUS
 62
    16
  5
5BA
 10
-6890.329887
 20
-3778.735497
 30
0.0
 11
-6890.329887
 21
-3775.735497
 31
0.0
  0
LINE
  8
1
  6
CONTINUOUS
 62
    16
  5
5BB
 10
-6870.759887
 20
-3778.735497
 30
0.0
 11
-6870.759887
 21
-3775.735497
 31
0.0
  0
LINE
  8
1
  6
CONTINUOUS
 62
    16
  5
5BC
 10
-6870.759887
 20
-3778.735497
 30
0.0
 11
-6878.259887
 21
-3778.735497
 31
0.0
  0
LINE
  8
1
  6
CONTINUOUS
 62
    16
  5
5BD
 10
-6878.259887
 20
-3778.735497
 30
0.0
 11
-6878.259887
 21
-3775.735497
 31
0.0
  0
LINE
  8
1
  6
CONTINUOUS
 62
    16
  5
5BE
 10
-6858.689887
 20
-3778.735497
 30
0.0
 11
-6858.689887
 21
-3775.735497
 31
0.0
  0
LINE
  8
1
  6
CONTINUOUS
 62
    16
  5
5BF
 10
-6858.689887
 20
-3778.735497
 30
0.0
 11
-6866.189887
 21
-3778.735497
 31
0.0
  0
LINE
  8
1
  6
CONTINUOUS
 62
    16
  5
5C0
 10
-6866.189887
 20
-3778.735497
 30
0.0
 11
-6866.189887
 21
-3775.735497
 31
0.0
  0
LINE
  8
1
  6
CONTINUOUS
 62
    16
  5
5C1
 10
-6846.619887
 20
-3778.735497
 30
0.0
 11
-6846.619887
 21
-3775.735497
 31
0.0
  0
LINE
  8
1
  6
CONTINUOUS
 62
    16
  5
5C2
 10
-6846.619887
 20
-3778.735497
 30
0.0
 11
-6854.119887
 21
-3778.735497
 31
0.0
  0
LINE
  8
1
  6
CONTINUOUS
 62
    16
  5
5C3
 10
-6854.119887
 20
-3778.735497
 30
0.0
 11
-6854.119887
 21
-3775.735497
 31
0.0
  0
LINE
  8
1
  6
CONTINUOUS
 62
    16
  5
5C4
 10
-6816.619887
 20
-3778.735497
 30
0.0
 11
-6816.619887
 21
-3775.735497
 31
0.0
  0
LINE
  8
1
  6
CONTINUOUS
 62
    16
  5
5C5
 10
-6816.619887
 20
-3778.735497
 30
0.0
 11
-6824.119887
 21
-3778.735497
 31
0.0
  0
LINE
  8
1
  6
CONTINUOUS
 62
    16
  5
5C6
 10
-6824.119887
 20
-3778.735497
 30
0.0
 11
-6824.119887
 21
-3775.735497
 31
0.0
  0
LINE
  8
1
  6
CONTINUOUS
 62
    16
  5
5C7
 10
-6803.259887
 20
-3777.735497
 30
0.0
 11
-6803.259887
 21
-3775.735497
 31
0.0
  0
LINE
  8
1
  6
CONTINUOUS
 62
    16
  5
5C8
 10
-6763.259887
 20
-3777.735497
 30
0.0
 11
-6763.259887
 21
-3775.735497
 31
0.0
  0
ARC
  8
1
  6
CONTINUOUS
 62
    16
  5
5C9
 10
-6783.259887
 20
-3377.985497
 30
0.0
 40
400.25
 50
267.135808
 51
272.864192
  0
POINT
  8
1
  6
CONTINUOUS
 62
    16
  5
5CA
 10
-6678.134887
 20
-3777.916764
 30
0.0
 50
57.29578
  0
POINT
  8
1
  6
CONTINUOUS
 62
    16
  5
5CB
 10
-6678.134887
 20
-3777.916764
 30
0.0
  0
POINT
  8
1
  6
CONTINUOUS
 62
    16
  5
5CC
 10
-6678.134887
 20
-3777.916764
 30
0.0
  0
ARC
  8
1
  6
CONTINUOUS
 62
    16
  5
5CD
 10
-6677.295786
 20
-3775.172006
 30
0.001526
 40
2.063491
 50
270.0
 51
304.027169
  0
ARC
  8
1
  6
CONTINUOUS
 62
    16
  5
5CE
 10
-6677.295786
 20
-3775.172006
 30
0.001526
 40
2.063491
 50
235.972831
 51
270.0
  0
ARC
  8
1
  6
CONTINUOUS
 62
    16
  5
5CF
 10
-6684.223989
 20
-3775.176814
 30
0.001526
 40
2.059508
 50
268.378247
 51
271.621753
  0
ARC
  8
1
  6
CONTINUOUS
 62
    16
  5
5D0
 10
-6684.223989
 20
-3775.176814
 30
0.001526
 40
2.059508
 50
235.897987
 51
268.378247
  0
ARC
  8
1
  6
CONTINUOUS
 62
    16
  5
5D1
 10
-6680.759887
 20
-3769.511524
 30
0.001526
 40
7.723973
 50
252.60297
 51
270.0
  0
ARC
  8
1
  6
CONTINUOUS
 62
    16
  5
5D2
 10
-6680.759887
 20
-3769.511524
 30
0.001526
 40
7.723973
 50
270.0
 51
287.39703
  0
ARC
  8
1
  6
CONTINUOUS
 62
    16
  5
5D3
 10
-6684.223989
 20
-3775.176814
 30
0.001526
 40
2.059508
 50
271.621753
 51
304.102013
  0
LINE
  8
1
  6
CONTINUOUS
 62
    16
  5
5D4
 10
-6683.069288
 20
-3775.735497
 30
0.001526
 11
-6678.450486
 21
-3775.735497
 31
0.001526
  0
LINE
  8
1
  6
CONTINUOUS
 62
    16
  5
5D5
 10
-6685.37869
 20
-3775.735497
 30
0.001526
 11
-6683.069288
 21
-3775.735497
 31
0.001526
  0
LINE
  8
1
  6
CONTINUOUS
 62
    16
  5
5D6
 10
-6684.165703
 20
-3777.235497
 30
0.001526
 11
-6680.759887
 21
-3777.235497
 31
0.001526
  0
LINE
  8
1
  6
CONTINUOUS
 62
    16
  5
5D7
 10
-6684.282275
 20
-3777.235497
 30
0.001526
 11
-6684.165703
 21
-3777.235497
 31
0.001526
  0
LINE
  8
1
  6
CONTINUOUS
 62
    16
  5
5D8
 10
-6680.759887
 20
-3777.235497
 30
0.001526
 11
-6677.295786
 21
-3777.235497
 31
0.001526
  0
LINE
  8
1
  6
CONTINUOUS
 62
    16
  5
5D9
 10
-6678.450486
 20
-3776.88217
 30
0.001526
 11
-6678.450486
 21
-3775.735497
 31
0.001526
  0
LINE
  8
1
  6
CONTINUOUS
 62
    16
  5
5DA
 10
-6683.069288
 20
-3776.88217
 30
0.001526
 11
-6683.069288
 21
-3775.735497
 31
0.001526
  0
LINE
  8
1
  6
CONTINUOUS
 62
    16
  5
5DB
 10
-6685.37869
 20
-3775.735497
 30
0.001526
 11
-6685.37869
 21
-3776.88217
 31
0.001526
  0
LINE
  8
1
  6
CONTINUOUS
 62
    16
  5
5DC
 10
-6683.359887
 20
-3777.235497
 30
0.001526
 11
-6683.359887
 21
-3777.916764
 31
0.001526
  0
LINE
  8
1
  6
CONTINUOUS
 62
    16
  5
5DD
 10
-6683.759887
 20
-3777.235497
 30
0.001526
 11
-6683.759887
 21
-3777.516764
 31
0.001526
  0
LINE
  8
1
  6
CONTINUOUS
 62
    16
  5
5DE
 10
-6678.159887
 20
-3777.916764
 30
0.001526
 11
-6678.159887
 21
-3777.235497
 31
0.001526
  0
LINE
  8
1
  6
CONTINUOUS
 62
    16
  5
5DF
 10
-6680.759887
 20
-3777.516764
 30
0.001526
 11
-6677.759887
 21
-3777.516764
 31
0.001526
  0
LINE
  8
1
  6
CONTINUOUS
 62
    16
  5
5E0
 10
-6677.759887
 20
-3777.516764
 30
0.001526
 11
-6678.159887
 21
-3777.916764
 31
0.001526
  0
LINE
  8
1
  6
CONTINUOUS
 62
    16
  5
5E1
 10
-6677.759887
 20
-3777.516764
 30
0.001526
 11
-6677.759887
 21
-3777.235497
 31
0.001526
  0
LINE
  8
1
  6
CONTINUOUS
 62
    16
  5
5E2
 10
-6683.759887
 20
-3777.516764
 30
0.001526
 11
-6680.759887
 21
-3777.516764
 31
0.001526
  0
LINE
  8
1
  6
CONTINUOUS
 62
    16
  5
5E3
 10
-6683.359887
 20
-3777.916764
 30
0.001526
 11
-6683.759887
 21
-3777.516764
 31
0.001526
  0
LINE
  8
1
  6
CONTINUOUS
 62
    16
  5
5E4
 10
-6682.879881
 20
-3778.016764
 30
0.001526
 11
-6682.879881
 21
-3780.216764
 31
0.001526
  0
LINE
  8
1
  6
CONTINUOUS
 62
    16
  5
5E5
 10
-6678.639893
 20
-3780.216764
 30
0.001526
 11
-6678.639893
 21
-3778.016764
 31
0.001526
  0
LINE
  8
1
  6
CONTINUOUS
 62
    16
  5
5E6
 10
-6683.384887
 20
-3778.016764
 30
0.001526
 11
-6683.384887
 21
-3777.916764
 31
0.001526
  0
LINE
  8
1
  6
CONTINUOUS
 62
    16
  5
5E7
 10
-6678.134887
 20
-3777.916764
 30
0.001526
 11
-6678.134887
 21
-3778.016764
 31
0.001526
  0
LINE
  8
1
  6
CONTINUOUS
 62
    16
  5
5E8
 10
-6678.134887
 20
-3778.016764
 30
0.001526
 11
-6683.384887
 21
-3778.016764
 31
0.001526
  0
LINE
  8
1
  6
CONTINUOUS
 62
    16
  5
5E9
 10
-6678.134887
 20
-3777.916764
 30
0.001526
 11
-6683.384887
 21
-3777.916764
 31
0.001526
  0
LINE
  8
1
  6
CONTINUOUS
 62
    16
  5
5EA
 10
-6678.450486
 20
-3775.735497
 30
0.001526
 11
-6676.141085
 21
-3775.735497
 31
0.001526
  0
LINE
  8
1
  6
CONTINUOUS
 62
    16
  5
5EB
 10
-6676.141085
 20
-3776.88217
 30
0.001526
 11
-6676.141085
 21
-3775.735497
 31
0.001526
  0
LINE
  8
1
  6
CONTINUOUS
 62
    16
  5
5EC
 10
-6678.616412
 20
-3787.235934
 30
0.001526
 11
-6678.567543
 21
-3781.636148
 31
0.001526
  0
LINE
  8
1
  6
CONTINUOUS
 62
    16
  5
5ED
 10
-6683.067371
 20
-3781.596879
 30
0.001526
 11
-6683.11624
 21
-3787.196665
 31
0.001526
  0
LINE
  8
1
  6
CONTINUOUS
 62
    16
  5
5EE
 10
-6680.229827
 20
-3781.621641
 30
0.001526
 11
-6680.367473
 21
-3781.62044
 31
0.001526
  0
LINE
  8
1
  6
CONTINUOUS
 62
    16
  5
5EF
 10
-6683.067371
 20
-3781.596879
 30
0.0
 11
-6678.567543
 21
-3781.636148
 31
0.0
  0
LINE
  8
1
  6
CONTINUOUS
 62
    16
  5
5F0
 10
-6682.879881
 20
-3780.216764
 30
0.0
 11
-6678.639893
 21
-3780.216764
 31
0.0
  0
LINE
  8
1
  6
CONTINUOUS
 62
    16
  5
5F1
 10
-6681.967413
 20
-3781.606477
 30
0.001526
 11
-6681.955285
 21
-3780.216764
 31
0.001526
  0
LINE
  8
1
  6
CONTINUOUS
 62
    16
  5
5F2
 10
-6679.6675
 20
-3781.626548
 30
0.001526
 11
-6679.655205
 21
-3780.216764
 31
0.001526
  0
LINE
  8
1
  6
CONTINUOUS
 62
    16
  5
5F3
 10
-6683.416228
 20
-3787.194047
 30
0.001526
 11
-6678.316423
 21
-3787.238552
 31
0.001526
  0
ARC
  8
1
  6
CONTINUOUS
 62
    16
  5
5F4
 10
-6682.474291
 20
-3793.851666
 30
0.001526
 40
1.0
 50
179.5
 51
207.66459
  0
LINE
  8
1
  6
CONTINUOUS
 62
    16
  5
5F5
 10
-6683.359971
 20
-3794.315961
 30
0.001526
 11
-6682.394412
 21
-3796.157845
 31
0.001526
  0
LINE
  8
1
  6
CONTINUOUS
 62
    16
  5
5F6
 10
-6683.474252
 20
-3793.84294
 30
0.001526
 11
-6683.416228
 21
-3787.194047
 31
0.001526
  0
LINE
  8
1
  6
CONTINUOUS
 62
    16
  5
5F7
 10
-6678.374446
 20
-3793.887445
 30
0.001526
 11
-6678.316423
 21
-3787.238552
 31
0.001526
  0
ARC
  8
1
  6
CONTINUOUS
 62
    16
  5
5F8
 10
-6680.930029
 20
-3794.516022
 30
0.001526
 40
2.2
 50
228.269423
 51
310.730577
  0
LINE
  8
1
  6
CONTINUOUS
 62
    16
  5
5F9
 10
-6679.494522
 20
-3796.183152
 30
0.001526
 11
-6678.496966
 21
-3794.3584
 31
0.001526
  0
ARC
  8
1
  6
CONTINUOUS
 62
    16
  5
5FA
 10
-6679.374408
 20
-3793.878718
 30
0.001526
 40
1.0
 50
331.33541
 51
359.5
  0
LINE
  8
1
  6
CONTINUOUS
 62
    16
  5
5FB
 10
-6748.759887
 20
-3785.235497
 30
0.0
 11
-6748.759887
 21
-3777.235497
 31
0.0
  0
LINE
  8
1
  6
CONTINUOUS
 62
    16
  5
5FC
 10
-6715.759887
 20
-3785.235497
 30
0.0
 11
-6748.759887
 21
-3785.235497
 31
0.0
  0
LINE
  8
1
  6
CONTINUOUS
 62
    16
  5
5FD
 10
-6715.759887
 20
-3785.235497
 30
0.0
 11
-6715.759887
 21
-3777.235497
 31
0.0
  0
LINE
  8
1
  6
CONTINUOUS
 62
    16
  5
5FE
 10
-6715.759887
 20
-3777.235497
 30
0.0
 11
-6748.759887
 21
-3777.235497
 31
0.0
  0
LINE
  8
1
  6
CONTINUOUS
 62
    16
  5
5FF
 10
-6736.759887
 20
-3776.735497
 30
0.0
 11
-6736.759887
 21
-3775.735497
 31
0.0
  0
LINE
  8
1
  6
CONTINUOUS
 62
    16
  5
600
 10
-6735.759887
 20
-3777.235497
 30
0.0
 11
-6735.759887
 21
-3776.735497
 31
0.0
  0
LINE
  8
1
  6
CONTINUOUS
 62
    16
  5
601
 10
-6727.759887
 20
-3776.735497
 30
0.0
 11
-6727.759887
 21
-3775.735497
 31
0.0
  0
LINE
  8
1
  6
CONTINUOUS
 62
    16
  5
602
 10
-6728.759887
 20
-3777.235497
 30
0.0
 11
-6728.759887
 21
-3776.735497
 31
0.0
  0
LINE
  8
1
  6
CONTINUOUS
 62
    16
  5
603
 10
-6727.759887
 20
-3776.735497
 30
0.0
 11
-6736.759887
 21
-3776.735497
 31
0.0
  0
LINE
  8
1
  6
CONTINUOUS
 62
    16
  5
604
 10
-6264.672589
 20
-4550.609401
 30
0.0
 11
-5782.072589
 21
-4550.609401
 31
0.0
  0
LINE
  8
1
  6
CONTINUOUS
 62
    16
  5
605
 10
-5782.072589
 20
-4547.609401
 30
0.0
 11
-6264.672589
 21
-4547.609401
 31
0.0
  0
LINE
  8
1
  6
CONTINUOUS
 62
    16
  5
606
 10
-6264.672589
 20
-4550.609401
 30
0.0
 11
-6264.672589
 21
-4547.609401
 31
0.0
  0
LINE
  8
1
  6
CONTINUOUS
 62
    16
  5
607
 10
-5782.072589
 20
-4550.609401
 30
0.0
 11
-5782.072589
 21
-4547.609401
 31
0.0
  0
LINE
  8
1
  6
CONTINUOUS
 62
    16
  5
608
 10
-6207.872589
 20
-4547.609401
 30
0.0
 11
-6207.872589
 21
-4547.359401
 31
0.0
  0
LINE
  8
1
  6
CONTINUOUS
 62
    16
  5
609
 10
-6207.872589
 20
-4547.609401
 30
0.0
 11
-6237.872589
 21
-4547.609401
 31
0.0
  0
LINE
  8
1
  6
CONTINUOUS
 62
    16
  5
60A
 10
-6237.872589
 20
-4233.609401
 30
0.0
 11
-6237.872589
 21
-4547.609401
 31
0.0
  0
LINE
  8
1
  6
CONTINUOUS
 62
    16
  5
60B
 10
-6220.872589
 20
-4233.609401
 30
0.0
 11
-6220.872589
 21
-4547.609401
 31
0.0
  0
LINE
  8
1
  6
CONTINUOUS
 62
    16
  5
60C
 10
-6220.622589
 20
-4233.859401
 30
0.0
 11
-6220.622589
 21
-4547.359401
 31
0.0
  0
LINE
  8
1
  6
CONTINUOUS
 62
    16
  5
60D
 10
-6220.622589
 20
-4547.359401
 30
0.0
 11
-5826.122589
 21
-4547.359401
 31
0.0
  0
LINE
  8
1
  6
CONTINUOUS
 62
    16
  5
60E
 10
-6220.622589
 20
-4233.859401
 30
0.0
 11
-5826.122589
 21
-4233.859401
 31
0.0
  0
LINE
  8
1
  6
CONTINUOUS
 62
    16
  5
60F
 10
-6207.872589
 20
-4233.609401
 30
0.0
 11
-6237.872589
 21
-4233.609401
 31
0.0
  0
LINE
  8
1
  6
CONTINUOUS
 62
    16
  5
610
 10
-6207.872589
 20
-4233.609401
 30
0.0
 11
-6207.872589
 21
-4233.859401
 31
0.0
  0
LINE
  8
1
  6
CONTINUOUS
 62
    16
  5
611
 10
-5808.372589
 20
-4230.609401
 30
0.0
 11
-6238.372589
 21
-4230.609401
 31
0.0
  0
LINE
  8
1
  6
CONTINUOUS
 62
    16
  5
612
 10
-5808.372589
 20
-4233.609401
 30
0.0
 11
-6238.372589
 21
-4233.609401
 31
0.0
  0
LINE
  8
1
  6
CONTINUOUS
 62
    16
  5
613
 10
-6238.372589
 20
-4230.609401
 30
0.0
 11
-6238.372589
 21
-4233.609401
 31
0.0
  0
LINE
  8
1
  6
CONTINUOUS
 62
    16
  5
614
 10
-5808.872589
 20
-4233.609401
 30
0.0
 11
-5808.872589
 21
-4547.609401
 31
0.0
  0
LINE
  8
1
  6
CONTINUOUS
 62
    16
  5
615
 10
-5825.872589
 20
-4233.609401
 30
0.0
 11
-5825.872589
 21
-4547.609401
 31
0.0
  0
LINE
  8
1
  6
CONTINUOUS
 62
    16
  5
616
 10
-5826.122589
 20
-4233.859401
 30
0.0
 11
-5826.122589
 21
-4547.359401
 31
0.0
  0
LINE
  8
1
  6
CONTINUOUS
 62
    16
  5
617
 10
-5808.372589
 20
-4230.609401
 30
0.0
 11
-5808.372589
 21
-4233.609401
 31
0.0
  0
CIRCLE
  8
1
  6
CONTINUOUS
 62
    16
  5
618
 10
-6023.372589
 20
-4541.609401
 30
0.0
 40
2.25
  0
CIRCLE
  8
1
  6
CONTINUOUS
 62
    16
  5
619
 10
-6023.372589
 20
-4239.609401
 30
0.0
 40
2.25
  0
LINE
  8
1
  6
CONTINUOUS
 62
    16
  5
61A
 10
-5838.872589
 20
-4547.609401
 30
0.0
 11
-5838.872589
 21
-4547.359401
 31
0.0
  0
LINE
  8
1
  6
CONTINUOUS
 62
    16
  5
61B
 10
-5838.872589
 20
-4233.609401
 30
0.0
 11
-5838.872589
 21
-4233.859401
 31
0.0
  0
LINE
  8
1
  6
CONTINUOUS
 62
    16
  5
61C
 10
-5838.872589
 20
-4547.609401
 30
0.0
 11
-5808.872589
 21
-4547.609401
 31
0.0
  0
LINE
  8
1
  6
CONTINUOUS
 62
    16
  5
61D
 10
-5838.872589
 20
-4233.609401
 30
0.0
 11
-5808.872589
 21
-4233.609401
 31
0.0
  0
CIRCLE
  8
1
  6
CONTINUOUS
 62
    16
  5
61E
 10
-6170.622908
 20
-4273.859401
 30
0.0
 40
1.5
  0
CIRCLE
  8
1
  6
CONTINUOUS
 62
    16
  5
61F
 10
-6212.872908
 20
-4278.609401
 30
0.0
 40
2.25
  0
CIRCLE
  8
1
  6
CONTINUOUS
 62
    16
  5
620
 10
-6212.872908
 20
-4502.609401
 30
0.0
 40
2.25
  0
CIRCLE
  8
1
  6
CONTINUOUS
 62
    16
  5
621
 10
-6170.622908
 20
-4507.359401
 30
0.0
 40
1.5
  0
CIRCLE
  8
1
  6
CONTINUOUS
 62
    16
  5
622
 10
-6170.622908
 20
-4507.359401
 30
0.0
 40
1.5
  0
CIRCLE
  8
1
  6
CONTINUOUS
 62
    16
  5
623
 10
-5876.122271
 20
-4273.859401
 30
0.0
 40
1.5
  0
CIRCLE
  8
1
  6
CONTINUOUS
 62
    16
  5
624
 10
-5833.872271
 20
-4278.609401
 30
0.0
 40
2.25
  0
CIRCLE
  8
1
  6
CONTINUOUS
 62
    16
  5
625
 10
-5833.872271
 20
-4502.609401
 30
0.0
 40
2.25
  0
CIRCLE
  8
1
  6
CONTINUOUS
 62
    16
  5
626
 10
-5876.122271
 20
-4507.359401
 30
0.0
 40
1.5
  0
LINE
  8
1
  6
CONTINUOUS
 62
    16
  5
627
 10
-6587.645137
 20
-4032.890546
 30
0.0
 11
-6587.645137
 21
-3934.209597
 31
0.0
  0
LINE
  8
1
  6
CONTINUOUS
 62
    16
  5
628
 10
-6267.645137
 20
-4032.890546
 30
0.0
 11
-6267.645137
 21
-3934.209597
 31
0.0
  0
LINE
  8
1
  6
CONTINUOUS
 62
    16
  5
629
 10
-6575.145137
 20
-3939.209597
 30
0.0
 11
-6280.145137
 21
-3939.209597
 31
0.0
  0
POINT
  8
1
  6
CONTINUOUS
 62
    16
  5
62A
 10
-6267.645137
 20
-3939.209597
 30
0.0
  0
LINE
  8
1
  6
CONTINUOUS
 62
    16
  5
62B
 10
-6575.145137
 20
-3942.558962
 30
0.0
 11
-6587.645137
 21
-3939.209597
 31
0.0
  0
LINE
  8
1
  6
CONTINUOUS
 62
    16
  5
62C
 10
-6587.645137
 20
-3939.209597
 30
0.0
 11
-6575.145137
 21
-3935.860232
 31
0.0
  0
LINE
  8
1
  6
CONTINUOUS
 62
    16
  5
62D
 10
-6587.645137
 20
-3939.209597
 30
0.0
 11
-6575.145137
 21
-3939.209597
 31
0.0
  0
LINE
  8
1
  6
CONTINUOUS
 62
    16
  5
62E
 10
-6280.145137
 20
-3935.860232
 30
0.0
 11
-6267.645137
 21
-3939.209597
 31
0.0
  0
LINE
  8
1
  6
CONTINUOUS
 62
    16
  5
62F
 10
-6267.645137
 20
-3939.209597
 30
0.0
 11
-6280.145137
 21
-3942.558962
 31
0.0
  0
LINE
  8
1
  6
CONTINUOUS
 62
    16
  5
630
 10
-6267.645137
 20
-3939.209597
 30
0.0
 11
-6280.145137
 21
-3939.209597
 31
0.0
  0
LINE
  8
1
  6
CONTINUOUS
 62
    16
  5
631
 10
-7111.359887
 20
-4032.890546
 30
0.0
 11
-7111.359887
 21
-3934.890545
 31
0.0
  0
LINE
  8
1
  6
CONTINUOUS
 62
    16
  5
632
 10
-6628.759887
 20
-4032.890546
 30
0.0
 11
-6628.759887
 21
-3934.890545
 31
0.0
  0
LINE
  8
1
  6
CONTINUOUS
 62
    16
  5
633
 10
-7098.859887
 20
-3939.890545
 30
0.0
 11
-6641.259887
 21
-3939.890545
 31
0.0
  0
POINT
  8
1
  6
CONTINUOUS
 62
    16
  5
634
 10
-6628.759887
 20
-3939.890545
 30
0.0
  0
LINE
  8
1
  6
CONTINUOUS
 62
    16
  5
635
 10
-7098.859887
 20
-3943.23991
 30
0.0
 11
-7111.359887
 21
-3939.890545
 31
0.0
  0
LINE
  8
1
  6
CONTINUOUS
 62
    16
  5
636
 10
-7111.359887
 20
-3939.890545
 30
0.0
 11
-7098.859887
 21
-3936.54118
 31
0.0
  0
LINE
  8
1
  6
CONTINUOUS
 62
    16
  5
637
 10
-7111.359887
 20
-3939.890545
 30
0.0
 11
-7098.859887
 21
-3939.890545
 31
0.0
  0
LINE
  8
1
  6
CONTINUOUS
 62
    16
  5
638
 10
-6641.259887
 20
-3936.54118
 30
0.0
 11
-6628.759887
 21
-3939.890545
 31
0.0
  0
LINE
  8
1
  6
CONTINUOUS
 62
    16
  5
639
 10
-6628.759887
 20
-3939.890545
 30
0.0
 11
-6641.259887
 21
-3943.23991
 31
0.0
  0
LINE
  8
1
  6
CONTINUOUS
 62
    16
  5
63A
 10
-6628.759887
 20
-3939.890545
 30
0.0
 11
-6641.259887
 21
-3939.890545
 31
0.0
  0
LINE
  8
1
  6
CONTINUOUS
 62
    16
  5
63B
 10
-5808.872589
 20
-4037.890546
 30
0.0
 11
-6238.872589
 21
-4037.890546
 31
0.0
  0
LINE
  8
1
  6
CONTINUOUS
 62
    16
  5
63C
 10
-5808.872589
 20
-4081.890546
 30
0.0
 11
-6238.872589
 21
-4081.890546
 31
0.0
  0
LINE
  8
1
  6
CONTINUOUS
 62
    16
  5
63D
 10
-6238.872589
 20
-4081.890546
 30
0.0
 11
-6238.872589
 21
-4037.890546
 31
0.0
  0
LINE
  8
1
  6
CONTINUOUS
 62
    16
  5
63E
 10
-5808.872589
 20
-4081.890546
 30
0.0
 11
-5808.872589
 21
-4037.890546
 31
0.0
  0
LINE
  8
1
  6
CONTINUOUS
 62
    16
  5
63F
 10
-6088.372589
 20
-4077.890546
 30
0.0
 11
-6088.372589
 21
-4041.890546
 31
0.0
  0
LINE
  8
1
  6
CONTINUOUS
 62
    16
  5
640
 10
-5990.372589
 20
-4077.890546
 30
0.0
 11
-5990.372589
 21
-4041.890546
 31
0.0
  0
CIRCLE
  8
1
  6
CONTINUOUS
 62
    16
  5
641
 10
-6203.872589
 20
-4063.390546
 30
0.0
 40
5.0
  0
CIRCLE
  8
1
  6
CONTINUOUS
 62
    16
  5
642
 10
-6203.872589
 20
-4063.390546
 30
0.0
 40
4.5
  0
CIRCLE
  8
1
  6
CONTINUOUS
 62
    16
  5
643
 10
-6203.872589
 20
-4063.390546
 30
0.0
 40
3.5
  0
CIRCLE
  8
1
  6
CONTINUOUS
 62
    16
  5
644
 10
-6203.872589
 20
-4063.390546
 30
0.0
 40
1.0
  0
LINE
  8
1
  6
CONTINUOUS
 62
    16
  5
645
 10
-6180.872589
 20
-4077.890546
 30
0.0
 11
-6180.872589
 21
-4041.890546
 31
0.0
  0
LINE
  8
1
  6
CONTINUOUS
 62
    16
  5
646
 10
-6167.372589
 20
-4075.390546
 30
0.0
 11
-6148.372589
 21
-4075.390546
 31
0.0
  0
LINE
  8
1
  6
CONTINUOUS
 62
    16
  5
647
 10
-6170.872589
 20
-4047.890546
 30
0.0
 11
-6170.872589
 21
-4071.890546
 31
0.0
  0
LINE
  8
1
  6
CONTINUOUS
 62
    16
  5
648
 10
-6162.872589
 20
-4045.958933
 30
0.0
 11
-6162.872589
 21
-4046.775131
 31
0.0
  0
LINE
  8
1
  6
CONTINUOUS
 62
    16
  5
649
 10
-6159.922589
 20
-4065.290546
 30
0.0
 11
-6161.372589
 21
-4065.290546
 31
0.0
  0
LINE
  8
1
  6
CONTINUOUS
 62
    16
  5
64A
 10
-6161.372589
 20
-4063.690546
 30
0.0
 11
-6164.022589
 21
-4063.690546
 31
0.0
  0
LINE
  8
1
  6
CONTINUOUS
 62
    16
  5
64B
 10
-6161.372589
 20
-4065.290546
 30
0.0
 11
-6161.372589
 21
-4063.690546
 31
0.0
  0
LINE
  8
1
  6
CONTINUOUS
 62
    16
  5
64C
 10
-6151.992871
 20
-4052.306575
 30
0.0
 11
-6151.996825
 21
-4052.313424
 31
0.0
  0
LINE
  8
1
  6
CONTINUOUS
 62
    16
  5
64D
 10
-6152.872589
 20
-4046.775131
 30
0.0
 11
-6152.872589
 21
-4045.958933
 31
0.0
  0
LINE
  8
1
  6
CONTINUOUS
 62
    16
  5
64E
 10
-6148.372589
 20
-4044.390546
 30
0.0
 11
-6153.63327
 21
-4044.390546
 31
0.0
  0
LINE
  8
1
  6
CONTINUOUS
 62
    16
  5
64F
 10
-6162.111909
 20
-4044.390546
 30
0.0
 11
-6167.372589
 21
-4044.390546
 31
0.0
  0
ARC
  8
1
  6
CONTINUOUS
 62
    16
  5
650
 10
-6157.872589
 20
-4060.009686
 30
0.0
 40
10.2
 50
103.014324
 51
103.100091
  0
ARC
  8
1
  6
CONTINUOUS
 62
    16
  5
651
 10
-6157.872589
 20
-4060.009686
 30
0.0
 40
10.2
 50
76.900226
 51
76.973831
  0
ARC
  8
1
  6
CONTINUOUS
 62
    16
  5
652
 10
-6154.872589
 20
-4046.775131
 30
0.0
 40
2.0
 50
270.0
 51
360.0
  0
ARC
  8
1
  6
CONTINUOUS
 62
    16
  5
653
 10
-6154.872589
 20
-4045.958933
 30
0.0
 40
2.0
 50
0.0
 51
67.975687
  0
ARC
  8
1
  6
CONTINUOUS
 62
    16
  5
654
 10
-6157.872589
 20
-4053.375131
 30
0.0
 40
10.0
 50
67.975687
 51
112.024313
  0
ARC
  8
1
  6
CONTINUOUS
 62
    16
  5
655
 10
-6160.872589
 20
-4045.958933
 30
0.0
 40
2.0
 50
112.024313
 51
180.0
  0
ARC
  8
1
  6
CONTINUOUS
 62
    16
  5
656
 10
-6160.872589
 20
-4046.775131
 30
0.0
 40
2.0
 50
180.0
 51
270.0
  0
ARC
  8
1
  6
CONTINUOUS
 62
    16
  5
657
 10
-6167.872589
 20
-4073.190546
 30
0.0
 40
1.0
 50
90.0
 51
270.0
  0
ARC
  8
1
  6
CONTINUOUS
 62
    16
  5
658
 10
-6167.372589
 20
-4047.890546
 30
0.0
 40
3.5
 50
90.0
 51
180.0
  0
ARC
  8
1
  6
CONTINUOUS
 62
    16
  5
659
 10
-6167.372589
 20
-4071.890546
 30
0.0
 40
3.5
 50
180.0
 51
270.0
  0
ARC
  8
1
  6
CONTINUOUS
 62
    16
  5
65A
 10
-6148.372589
 20
-4047.890546
 30
0.0
 40
3.5
 50
0.0
 51
90.0
  0
ARC
  8
1
  6
CONTINUOUS
 62
    16
  5
65B
 10
-6157.872589
 20
-4059.890546
 30
0.0
 40
11.2
 50
102.517874
 51
120.0
  0
ARC
  8
1
  6
CONTINUOUS
 62
    16
  5
65C
 10
-6157.872589
 20
-4059.890546
 30
0.0
 40
11.2
 50
60.0
 51
77.48223
  0
ARC
  8
1
  6
CONTINUOUS
 62
    16
  5
65D
 10
-6157.872589
 20
-4059.890546
 30
0.0
 40
9.6
 50
122.836373
 51
57.163627
  0
ARC
  8
1
  6
CONTINUOUS
 62
    16
  5
65E
 10
-6157.872589
 20
-4059.890546
 30
0.0
 40
11.8
 50
122.534813
 51
57.465188
  0
POLYLINE
  8
1
  6
CONTINUOUS
 62
    16
  5
65F
 66
     1
 10
0.0
 20
0.0
 30
0.0
 70
     4
 75
     6
  0
VERTEX
  8
1
  6
CONTINUOUS
 62
    16
  5
660
 10
-6160.184433
 20
-4050.075131
 30
0.0
 70
    16
  0
VERTEX
  8
1
  6
CONTINUOUS
 62
    16
  5
661
 10
-6160.184433
 20
-4050.075131
 30
0.0
 70
     8
  0
VERTEX
  8
1
  6
CONTINUOUS
 62
    16
  5
662
 10
-6160.184739
 20
-4050.075203
 30
0.0
 70
     8
  0
VERTEX
  8
1
  6
CONTINUOUS
 62
    16
  5
663
 10
-6160.185054
 20
-4050.075276
 30
0.0
 70
     8
  0
VERTEX
  8
1
  6
CONTINUOUS
 62
    16
  5
664
 10
-6160.185387
 20
-4050.075354
 30
0.0
 70
     8
  0
VERTEX
  8
1
  6
CONTINUOUS
 62
    16
  5
665
 10
-6160.185747
 20
-4050.075437
 30
0.0
 70
     8
  0
VERTEX
  8
1
  6
CONTINUOUS
 62
    16
  5
666
 10
-6160.186143
 20
-4050.07553
 30
0.0
 70
     8
  0
VERTEX
  8
1
  6
CONTINUOUS
 62
    16
  5
667
 10
-6160.186584
 20
-4050.075632
 30
0.0
 70
     8
  0
VERTEX
  8
1
  6
CONTINUOUS
 62
    16
  5
668
 10
-6160.187079
 20
-4050.075748
 30
0.0
 70
     8
  0
VERTEX
  8
1
  6
CONTINUOUS
 62
    16
  5
669
 10
-6160.187637
 20
-4050.075878
 30
0.0
 70
     8
  0
VERTEX
  8
1
  6
CONTINUOUS
 62
    16
  5
66A
 10
-6160.188266
 20
-4050.076024
 30
0.0
 70
     8
  0
VERTEX
  8
1
  6
CONTINUOUS
 62
    16
  5
66B
 10
-6160.188977
 20
-4050.07619
 30
0.0
 70
     8
  0
VERTEX
  8
1
  6
CONTINUOUS
 62
    16
  5
66C
 10
-6160.189776
 20
-4050.076376
 30
0.0
 70
     8
  0
VERTEX
  8
1
  6
CONTINUOUS
 62
    16
  5
66D
 10
-6160.19067
 20
-4050.076585
 30
0.0
 70
     8
  0
VERTEX
  8
1
  6
CONTINUOUS
 62
    16
  5
66E
 10
-6160.191663
 20
-4050.076816
 30
0.0
 70
     8
  0
VERTEX
  8
1
  6
CONTINUOUS
 62
    16
  5
66F
 10
-6160.19276
 20
-4050.077072
 30
0.0
 70
     8
  0
VERTEX
  8
1
  6
CONTINUOUS
 62
    16
  5
670
 10
-6160.193965
 20
-4050.077354
 30
0.0
 70
     8
  0
VERTEX
  8
1
  6
CONTINUOUS
 62
    16
  5
671
 10
-6160.195284
 20
-4050.077662
 30
0.0
 70
     8
  0
VERTEX
  8
1
  6
CONTINUOUS
 62
    16
  5
672
 10
-6160.19672
 20
-4050.077998
 30
0.0
 70
     8
  0
VERTEX
  8
1
  6
CONTINUOUS
 62
    16
  5
673
 10
-6160.198279
 20
-4050.078363
 30
0.0
 70
     8
  0
VERTEX
  8
1
  6
CONTINUOUS
 62
    16
  5
674
 10
-6160.199964
 20
-4050.078758
 30
0.0
 70
     8
  0
VERTEX
  8
1
  6
CONTINUOUS
 62
    16
  5
675
 10
-6160.201782
 20
-4050.079184
 30
0.0
 70
     8
  0
VERTEX
  8
1
  6
CONTINUOUS
 62
    16
  5
676
 10
-6160.203735
 20
-4050.079642
 30
0.0
 70
     8
  0
VERTEX
  8
1
  6
CONTINUOUS
 62
    16
  5
677
 10
-6160.205826
 20
-4050.080133
 30
0.0
 70
     8
  0
VERTEX
  8
1
  6
CONTINUOUS
 62
    16
  5
678
 10
-6160.208054
 20
-4050.080657
 30
0.0
 70
     8
  0
VERTEX
  8
1
  6
CONTINUOUS
 62
    16
  5
679
 10
-6160.210421
 20
-4050.081214
 30
0.0
 70
     8
  0
VERTEX
  8
1
  6
CONTINUOUS
 62
    16
  5
67A
 10
-6160.212929
 20
-4050.081804
 30
0.0
 70
     8
  0
VERTEX
  8
1
  6
CONTINUOUS
 62
    16
  5
67B
 10
-6160.215576
 20
-4050.082429
 30
0.0
 70
     8
  0
VERTEX
  8
1
  6
CONTINUOUS
 62
    16
  5
67C
 10
-6160.218365
 20
-4050.083087
 30
0.0
 70
     8
  0
VERTEX
  8
1
  6
CONTINUOUS
 62
    16
  5
67D
 10
-6160.221297
 20
-4050.083781
 30
0.0
 70
     8
  0
VERTEX
  8
1
  6
CONTINUOUS
 62
    16
  5
67E
 10
-6160.224371
 20
-4050.084509
 30
0.0
 70
     8
  0
VERTEX
  8
1
  6
CONTINUOUS
 62
    16
  5
67F
 10
-6160.227589
 20
-4050.085272
 30
0.0
 70
     8
  0
VERTEX
  8
1
  6
CONTINUOUS
 62
    16
  5
680
 10
-6160.230951
 20
-4050.08607
 30
0.0
 70
     8
  0
VERTEX
  8
1
  6
CONTINUOUS
 62
    16
  5
681
 10
-6160.234454
 20
-4050.086903
 30
0.0
 70
     8
  0
VERTEX
  8
1
  6
CONTINUOUS
 62
    16
  5
682
 10
-6160.238093
 20
-4050.08777
 30
0.0
 70
     8
  0
VERTEX
  8
1
  6
CONTINUOUS
 62
    16
  5
683
 10
-6160.241863
 20
-4050.08867
 30
0.0
 70
     8
  0
VERTEX
  8
1
  6
CONTINUOUS
 62
    16
  5
684
 10
-6160.245761
 20
-4050.089602
 30
0.0
 70
     8
  0
VERTEX
  8
1
  6
CONTINUOUS
 62
    16
  5
685
 10
-6160.249782
 20
-4050.090564
 30
0.0
 70
     8
  0
VERTEX
  8
1
  6
CONTINUOUS
 62
    16
  5
686
 10
-6160.253921
 20
-4050.091557
 30
0.0
 70
     8
  0
VERTEX
  8
1
  6
CONTINUOUS
 62
    16
  5
687
 10
-6160.258176
 20
-4050.09258
 30
0.0
 70
     8
  0
VERTEX
  8
1
  6
CONTINUOUS
 62
    16
  5
688
 10
-6160.26254
 20
-4050.093631
 30
0.0
 70
     8
  0
VERTEX
  8
1
  6
CONTINUOUS
 62
    16
  5
689
 10
-6160.26701
 20
-4050.094709
 30
0.0
 70
     8
  0
VERTEX
  8
1
  6
CONTINUOUS
 62
    16
  5
68A
 10
-6160.271579
 20
-4050.095814
 30
0.0
 70
     8
  0
VERTEX
  8
1
  6
CONTINUOUS
 62
    16
  5
68B
 10
-6160.276225
 20
-4050.096939
 30
0.0
 70
     8
  0
VERTEX
  8
1
  6
CONTINUOUS
 62
    16
  5
68C
 10
-6160.280925
 20
-4050.09808
 30
0.0
 70
     8
  0
VERTEX
  8
1
  6
CONTINUOUS
 62
    16
  5
68D
 10
-6160.285655
 20
-4050.09923
 30
0.0
 70
     8
  0
VERTEX
  8
1
  6
CONTINUOUS
 62
    16
  5
68E
 10
-6160.290392
 20
-4050.100383
 30
0.0
 70
     8
  0
VERTEX
  8
1
  6
CONTINUOUS
 62
    16
  5
68F
 10
-6160.29511
 20
-4050.101535
 30
0.0
 70
     8
  0
VERTEX
  8
1
  6
CONTINUOUS
 62
    16
  5
690
 10
-6160.299788
 20
-4050.102678
 30
0.0
 70
     8
  0
VERTEX
  8
1
  6
CONTINUOUS
 62
    16
  5
691
 10
-6160.3044
 20
-4050.103808
 30
0.0
 70
     8
  0
VERTEX
  8
1
  6
CONTINUOUS
 62
    16
  5
692
 10
-6160.308923
 20
-4050.104918
 30
0.0
 70
     8
  0
VERTEX
  8
1
  6
CONTINUOUS
 62
    16
  5
693
 10
-6160.313334
 20
-4050.106002
 30
0.0
 70
     8
  0
VERTEX
  8
1
  6
CONTINUOUS
 62
    16
  5
694
 10
-6160.317611
 20
-4050.107056
 30
0.0
 70
     8
  0
VERTEX
  8
1
  6
CONTINUOUS
 62
    16
  5
695
 10
-6160.321747
 20
-4050.108078
 30
0.0
 70
     8
  0
VERTEX
  8
1
  6
CONTINUOUS
 62
    16
  5
696
 10
-6160.325739
 20
-4050.109066
 30
0.0
 70
     8
  0
VERTEX
  8
1
  6
CONTINUOUS
 62
    16
  5
697
 10
-6160.329583
 20
-4050.110019
 30
0.0
 70
     8
  0
VERTEX
  8
1
  6
CONTINUOUS
 62
    16
  5
698
 10
-6160.333275
 20
-4050.110937
 30
0.0
 70
     8
  0
VERTEX
  8
1
  6
CONTINUOUS
 62
    16
  5
699
 10
-6160.336811
 20
-4050.111817
 30
0.0
 70
     8
  0
VERTEX
  8
1
  6
CONTINUOUS
 62
    16
  5
69A
 10
-6160.340188
 20
-4050.112659
 30
0.0
 70
     8
  0
VERTEX
  8
1
  6
CONTINUOUS
 62
    16
  5
69B
 10
-6160.3434
 20
-4050.113461
 30
0.0
 70
     8
  0
VERTEX
  8
1
  6
CONTINUOUS
 62
    16
  5
69C
 10
-6160.346446
 20
-4050.114223
 30
0.0
 70
     8
  0
VERTEX
  8
1
  6
CONTINUOUS
 62
    16
  5
69D
 10
-6160.34932
 20
-4050.114943
 30
0.0
 70
     8
  0
VERTEX
  8
1
  6
CONTINUOUS
 62
    16
  5
69E
 10
-6160.352022
 20
-4050.11562
 30
0.0
 70
     8
  0
VERTEX
  8
1
  6
CONTINUOUS
 62
    16
  5
69F
 10
-6160.354568
 20
-4050.116259
 30
0.0
 70
     8
  0
VERTEX
  8
1
  6
CONTINUOUS
 62
    16
  5
6A0
 10
-6160.356973
 20
-4050.116864
 30
0.0
 70
     8
  0
VERTEX
  8
1
  6
CONTINUOUS
 62
    16
  5
6A1
 10
-6160.359255
 20
-4050.117438
 30
0.0
 70
     8
  0
VERTEX
  8
1
  6
CONTINUOUS
 62
    16
  5
6A2
 10
-6160.361432
 20
-4050.117987
 30
0.0
 70
     8
  0
VERTEX
  8
1
  6
CONTINUOUS
 62
    16
  5
6A3
 10
-6160.363522
 20
-4050.118514
 30
0.0
 70
     8
  0
VERTEX
  8
1
  6
CONTINUOUS
 62
    16
  5
6A4
 10
-6160.365542
 20
-4050.119023
 30
0.0
 70
     8
  0
VERTEX
  8
1
  6
CONTINUOUS
 62
    16
  5
6A5
 10
-6160.367509
 20
-4050.11952
 30
0.0
 70
     8
  0
VERTEX
  8
1
  6
CONTINUOUS
 62
    16
  5
6A6
 10
-6160.369442
 20
-4050.120008
 30
0.0
 70
     8
  0
VERTEX
  8
1
  6
CONTINUOUS
 62
    16
  5
6A7
 10
-6160.371357
 20
-4050.120492
 30
0.0
 70
     8
  0
VERTEX
  8
1
  6
CONTINUOUS
 62
    16
  5
6A8
 10
-6160.18748
 20
-4050.075841
 30
0.0
 70
    16
  0
VERTEX
  8
1
  6
CONTINUOUS
 62
    16
  5
6A9
 10
-6160.199509
 20
-4050.078646
 30
0.0
 70
    16
  0
VERTEX
  8
1
  6
CONTINUOUS
 62
    16
  5
6AA
 10
-6160.225177
 20
-4050.084681
 30
0.0
 70
    16
  0
VERTEX
  8
1
  6
CONTINUOUS
 62
    16
  5
6AB
 10
-6160.265318
 20
-4050.094263
 30
0.0
 70
    16
  0
VERTEX
  8
1
  6
CONTINUOUS
 62
    16
  5
6AC
 10
-6160.315612
 20
-4050.106522
 30
0.0
 70
    16
  0
VERTEX
  8
1
  6
CONTINUOUS
 62
    16
  5
6AD
 10
-6160.352238
 20
-4050.115661
 30
0.0
 70
    16
  0
VERTEX
  8
1
  6
CONTINUOUS
 62
    16
  5
6AE
 10
-6160.371357
 20
-4050.120492
 30
0.0
 70
    16
  0
SEQEND
  8
1
  6
CONTINUOUS
 62
    16
  5
6AF
  0
POLYLINE
  8
1
  6
CONTINUOUS
 62
    16
  5
6B0
 66
     1
 10
0.0
 20
0.0
 30
0.0
 70
     4
 75
     6
  0
VERTEX
  8
1
  6
CONTINUOUS
 62
    16
  5
6B1
 10
-6155.373822
 20
-4050.120492
 30
0.0
 70
    16
  0
VERTEX
  8
1
  6
CONTINUOUS
 62
    16
  5
6B2
 10
-6155.373822
 20
-4050.120492
 30
0.0
 70
     8
  0
VERTEX
  8
1
  6
CONTINUOUS
 62
    16
  5
6B3
 10
-6155.375736
 20
-4050.120008
 30
0.0
 70
     8
  0
VERTEX
  8
1
  6
CONTINUOUS
 62
    16
  5
6B4
 10
-6155.377669
 20
-4050.11952
 30
0.0
 70
     8
  0
VERTEX
  8
1
  6
CONTINUOUS
 62
    16
  5
6B5
 10
-6155.379636
 20
-4050.119023
 30
0.0
 70
     8
  0
VERTEX
  8
1
  6
CONTINUOUS
 62
    16
  5
6B6
 10
-6155.381655
 20
-4050.118514
 30
0.0
 70
     8
  0
VERTEX
  8
1
  6
CONTINUOUS
 62
    16
  5
6B7
 10
-6155.383745
 20
-4050.117987
 30
0.0
 70
     8
  0
VERTEX
  8
1
  6
CONTINUOUS
 62
    16
  5
6B8
 10
-6155.385922
 20
-4050.117438
 30
0.0
 70
     8
  0
VERTEX
  8
1
  6
CONTINUOUS
 62
    16
  5
6B9
 10
-6155.388205
 20
-4050.116864
 30
0.0
 70
     8
  0
VERTEX
  8
1
  6
CONTINUOUS
 62
    16
  5
6BA
 10
-6155.390609
 20
-4050.11626
 30
0.0
 70
     8
  0
VERTEX
  8
1
  6
CONTINUOUS
 62
    16
  5
6BB
 10
-6155.393154
 20
-4050.115621
 30
0.0
 70
     8
  0
VERTEX
  8
1
  6
CONTINUOUS
 62
    16
  5
6BC
 10
-6155.395857
 20
-4050.114943
 30
0.0
 70
     8
  0
VERTEX
  8
1
  6
CONTINUOUS
 62
    16
  5
6BD
 10
-6155.398731
 20
-4050.114223
 30
0.0
 70
     8
  0
VERTEX
  8
1
  6
CONTINUOUS
 62
    16
  5
6BE
 10
-6155.401776
 20
-4050.113462
 30
0.0
 70
     8
  0
VERTEX
  8
1
  6
CONTINUOUS
 62
    16
  5
6BF
 10
-6155.404989
 20
-4050.112659
 30
0.0
 70
     8
  0
VERTEX
  8
1
  6
CONTINUOUS
 62
    16
  5
6C0
 10
-6155.408365
 20
-4050.111817
 30
0.0
 70
     8
  0
VERTEX
  8
1
  6
CONTINUOUS
 62
    16
  5
6C1
 10
-6155.411901
 20
-4050.110937
 30
0.0
 70
     8
  0
VERTEX
  8
1
  6
CONTINUOUS
 62
    16
  5
6C2
 10
-6155.415593
 20
-4050.11002
 30
0.0
 70
     8
  0
VERTEX
  8
1
  6
CONTINUOUS
 62
    16
  5
6C3
 10
-6155.419437
 20
-4050.109066
 30
0.0
 70
     8
  0
VERTEX
  8
1
  6
CONTINUOUS
 62
    16
  5
6C4
 10
-6155.423429
 20
-4050.108078
 30
0.0
 70
     8
  0
VERTEX
  8
1
  6
CONTINUOUS
 62
    16
  5
6C5
 10
-6155.427565
 20
-4050.107057
 30
0.0
 70
     8
  0
VERTEX
  8
1
  6
CONTINUOUS
 62
    16
  5
6C6
 10
-6155.431842
 20
-4050.106003
 30
0.0
 70
     8
  0
VERTEX
  8
1
  6
CONTINUOUS
 62
    16
  5
6C7
 10
-6155.436253
 20
-4050.104918
 30
0.0
 70
     8
  0
VERTEX
  8
1
  6
CONTINUOUS
 62
    16
  5
6C8
 10
-6155.440776
 20
-4050.103808
 30
0.0
 70
     8
  0
VERTEX
  8
1
  6
CONTINUOUS
 62
    16
  5
6C9
 10
-6155.445388
 20
-4050.102679
 30
0.0
 70
     8
  0
VERTEX
  8
1
  6
CONTINUOUS
 62
    16
  5
6CA
 10
-6155.450066
 20
-4050.101535
 30
0.0
 70
     8
  0
VERTEX
  8
1
  6
CONTINUOUS
 62
    16
  5
6CB
 10
-6155.454784
 20
-4050.100384
 30
0.0
 70
     8
  0
VERTEX
  8
1
  6
CONTINUOUS
 62
    16
  5
6CC
 10
-6155.459521
 20
-4050.09923
 30
0.0
 70
     8
  0
VERTEX
  8
1
  6
CONTINUOUS
 62
    16
  5
6CD
 10
-6155.464251
 20
-4050.09808
 30
0.0
 70
     8
  0
VERTEX
  8
1
  6
CONTINUOUS
 62
    16
  5
6CE
 10
-6155.468951
 20
-4050.09694
 30
0.0
 70
     8
  0
VERTEX
  8
1
  6
CONTINUOUS
 62
    16
  5
6CF
 10
-6155.473597
 20
-4050.095814
 30
0.0
 70
     8
  0
VERTEX
  8
1
  6
CONTINUOUS
 62
    16
  5
6D0
 10
-6155.478166
 20
-4050.09471
 30
0.0
 70
     8
  0
VERTEX
  8
1
  6
CONTINUOUS
 62
    16
  5
6D1
 10
-6155.482636
 20
-4050.093631
 30
0.0
 70
     8
  0
VERTEX
  8
1
  6
CONTINUOUS
 62
    16
  5
6D2
 10
-6155.487001
 20
-4050.09258
 30
0.0
 70
     8
  0
VERTEX
  8
1
  6
CONTINUOUS
 62
    16
  5
6D3
 10
-6155.491255
 20
-4050.091558
 30
0.0
 70
     8
  0
VERTEX
  8
1
  6
CONTINUOUS
 62
    16
  5
6D4
 10
-6155.495395
 20
-4050.090565
 30
0.0
 70
     8
  0
VERTEX
  8
1
  6
CONTINUOUS
 62
    16
  5
6D5
 10
-6155.499416
 20
-4050.089602
 30
0.0
 70
     8
  0
VERTEX
  8
1
  6
CONTINUOUS
 62
    16
  5
6D6
 10
-6155.503314
 20
-4050.08867
 30
0.0
 70
     8
  0
VERTEX
  8
1
  6
CONTINUOUS
 62
    16
  5
6D7
 10
-6155.507085
 20
-4050.08777
 30
0.0
 70
     8
  0
VERTEX
  8
1
  6
CONTINUOUS
 62
    16
  5
6D8
 10
-6155.510724
 20
-4050.086904
 30
0.0
 70
     8
  0
VERTEX
  8
1
  6
CONTINUOUS
 62
    16
  5
6D9
 10
-6155.514226
 20
-4050.086071
 30
0.0
 70
     8
  0
VERTEX
  8
1
  6
CONTINUOUS
 62
    16
  5
6DA
 10
-6155.517588
 20
-4050.085272
 30
0.0
 70
     8
  0
VERTEX
  8
1
  6
CONTINUOUS
 62
    16
  5
6DB
 10
-6155.520807
 20
-4050.084509
 30
0.0
 70
     8
  0
VERTEX
  8
1
  6
CONTINUOUS
 62
    16
  5
6DC
 10
-6155.523881
 20
-4050.083781
 30
0.0
 70
     8
  0
VERTEX
  8
1
  6
CONTINUOUS
 62
    16
  5
6DD
 10
-6155.526813
 20
-4050.083088
 30
0.0
 70
     8
  0
VERTEX
  8
1
  6
CONTINUOUS
 62
    16
  5
6DE
 10
-6155.529602
 20
-4050.082429
 30
0.0
 70
     8
  0
VERTEX
  8
1
  6
CONTINUOUS
 62
    16
  5
6DF
 10
-6155.53225
 20
-4050.081804
 30
0.0
 70
     8
  0
VERTEX
  8
1
  6
CONTINUOUS
 62
    16
  5
6E0
 10
-6155.534757
 20
-4050.081214
 30
0.0
 70
     8
  0
VERTEX
  8
1
  6
CONTINUOUS
 62
    16
  5
6E1
 10
-6155.537124
 20
-4050.080657
 30
0.0
 70
     8
  0
VERTEX
  8
1
  6
CONTINUOUS
 62
    16
  5
6E2
 10
-6155.539353
 20
-4050.080133
 30
0.0
 70
     8
  0
VERTEX
  8
1
  6
CONTINUOUS
 62
    16
  5
6E3
 10
-6155.541443
 20
-4050.079642
 30
0.0
 70
     8
  0
VERTEX
  8
1
  6
CONTINUOUS
 62
    16
  5
6E4
 10
-6155.543396
 20
-4050.079184
 30
0.0
 70
     8
  0
VERTEX
  8
1
  6
CONTINUOUS
 62
    16
  5
6E5
 10
-6155.545214
 20
-4050.078758
 30
0.0
 70
     8
  0
VERTEX
  8
1
  6
CONTINUOUS
 62
    16
  5
6E6
 10
-6155.5469
 20
-4050.078363
 30
0.0
 70
     8
  0
VERTEX
  8
1
  6
CONTINUOUS
 62
    16
  5
6E7
 10
-6155.548458
 20
-4050.077998
 30
0.0
 70
     8
  0
VERTEX
  8
1
  6
CONTINUOUS
 62
    16
  5
6E8
 10
-6155.549895
 20
-4050.077662
 30
0.0
 70
     8
  0
VERTEX
  8
1
  6
CONTINUOUS
 62
    16
  5
6E9
 10
-6155.551213
 20
-4050.077354
 30
0.0
 70
     8
  0
VERTEX
  8
1
  6
CONTINUOUS
 62
    16
  5
6EA
 10
-6155.552418
 20
-4050.077072
 30
0.0
 70
     8
  0
VERTEX
  8
1
  6
CONTINUOUS
 62
    16
  5
6EB
 10
-6155.553515
 20
-4050.076816
 30
0.0
 70
     8
  0
VERTEX
  8
1
  6
CONTINUOUS
 62
    16
  5
6EC
 10
-6155.554508
 20
-4050.076585
 30
0.0
 70
     8
  0
VERTEX
  8
1
  6
CONTINUOUS
 62
    16
  5
6ED
 10
-6155.555402
 20
-4050.076376
 30
0.0
 70
     8
  0
VERTEX
  8
1
  6
CONTINUOUS
 62
    16
  5
6EE
 10
-6155.556202
 20
-4050.07619
 30
0.0
 70
     8
  0
VERTEX
  8
1
  6
CONTINUOUS
 62
    16
  5
6EF
 10
-6155.556912
 20
-4050.076024
 30
0.0
 70
     8
  0
VERTEX
  8
1
  6
CONTINUOUS
 62
    16
  5
6F0
 10
-6155.557542
 20
-4050.075878
 30
0.0
 70
     8
  0
VERTEX
  8
1
  6
CONTINUOUS
 62
    16
  5
6F1
 10
-6155.558099
 20
-4050.075748
 30
0.0
 70
     8
  0
VERTEX
  8
1
  6
CONTINUOUS
 62
    16
  5
6F2
 10
-6155.558594
 20
-4050.075632
 30
0.0
 70
     8
  0
VERTEX
  8
1
  6
CONTINUOUS
 62
    16
  5
6F3
 10
-6155.559035
 20
-4050.07553
 30
0.0
 70
     8
  0
VERTEX
  8
1
  6
CONTINUOUS
 62
    16
  5
6F4
 10
-6155.559431
 20
-4050.075437
 30
0.0
 70
     8
  0
VERTEX
  8
1
  6
CONTINUOUS
 62
    16
  5
6F5
 10
-6155.559791
 20
-4050.075354
 30
0.0
 70
     8
  0
VERTEX
  8
1
  6
CONTINUOUS
 62
    16
  5
6F6
 10
-6155.560124
 20
-4050.075276
 30
0.0
 70
     8
  0
VERTEX
  8
1
  6
CONTINUOUS
 62
    16
  5
6F7
 10
-6155.56044
 20
-4050.075203
 30
0.0
 70
     8
  0
VERTEX
  8
1
  6
CONTINUOUS
 62
    16
  5
6F8
 10
-6155.560746
 20
-4050.075131
 30
0.0
 70
     8
  0
VERTEX
  8
1
  6
CONTINUOUS
 62
    16
  5
6F9
 10
-6155.392939
 20
-4050.115661
 30
0.0
 70
    16
  0
VERTEX
  8
1
  6
CONTINUOUS
 62
    16
  5
6FA
 10
-6155.429565
 20
-4050.106523
 30
0.0
 70
    16
  0
VERTEX
  8
1
  6
CONTINUOUS
 62
    16
  5
6FB
 10
-6155.479858
 20
-4050.094264
 30
0.0
 70
    16
  0
VERTEX
  8
1
  6
CONTINUOUS
 62
    16
  5
6FC
 10
-6155.520001
 20
-4050.084681
 30
0.0
 70
    16
  0
VERTEX
  8
1
  6
CONTINUOUS
 62
    16
  5
6FD
 10
-6155.54567
 20
-4050.078646
 30
0.0
 70
    16
  0
VERTEX
  8
1
  6
CONTINUOUS
 62
    16
  5
6FE
 10
-6155.557699
 20
-4050.075841
 30
0.0
 70
    16
  0
VERTEX
  8
1
  6
CONTINUOUS
 62
    16
  5
6FF
 10
-6155.560746
 20
-4050.075131
 30
0.0
 70
    16
  0
SEQEND
  8
1
  6
CONTINUOUS
 62
    16
  5
700
  0
POLYLINE
  8
1
  6
CONTINUOUS
 62
    16
  5
701
 66
     1
 10
0.0
 20
0.0
 30
0.0
 70
     4
 75
     6
  0
VERTEX
  8
1
  6
CONTINUOUS
 62
    16
  5
702
 10
-6160.299907
 20
-4048.987298
 30
0.0
 70
    16
  0
VERTEX
  8
1
  6
CONTINUOUS
 62
    16
  5
703
 10
-6160.299907
 20
-4048.987298
 30
0.0
 70
     8
  0
VERTEX
  8
1
  6
CONTINUOUS
 62
    16
  5
704
 10
-6160.299691
 20
-4048.9852
 30
0.0
 70
     8
  0
VERTEX
  8
1
  6
CONTINUOUS
 62
    16
  5
705
 10
-6160.29948
 20
-4048.983078
 30
0.0
 70
     8
  0
VERTEX
  8
1
  6
CONTINUOUS
 62
    16
  5
706
 10
-6160.299279
 20
-4048.980911
 30
0.0
 70
     8
  0
VERTEX
  8
1
  6
CONTINUOUS
 62
    16
  5
707
 10
-6160.299093
 20
-4048.978676
 30
0.0
 70
     8
  0
VERTEX
  8
1
  6
CONTINUOUS
 62
    16
  5
708
 10
-6160.298926
 20
-4048.976349
 30
0.0
 70
     8
  0
VERTEX
  8
1
  6
CONTINUOUS
 62
    16
  5
709
 10
-6160.298785
 20
-4048.973908
 30
0.0
 70
     8
  0
VERTEX
  8
1
  6
CONTINUOUS
 62
    16
  5
70A
 10
-6160.298673
 20
-4048.971331
 30
0.0
 70
     8
  0
VERTEX
  8
1
  6
CONTINUOUS
 62
    16
  5
70B
 10
-6160.298595
 20
-4048.968594
 30
0.0
 70
     8
  0
VERTEX
  8
1
  6
CONTINUOUS
 62
    16
  5
70C
 10
-6160.298558
 20
-4048.965674
 30
0.0
 70
     8
  0
VERTEX
  8
1
  6
CONTINUOUS
 62
    16
  5
70D
 10
-6160.298565
 20
-4048.96255
 30
0.0
 70
     8
  0
VERTEX
  8
1
  6
CONTINUOUS
 62
    16
  5
70E
 10
-6160.298624
 20
-4048.959202
 30
0.0
 70
     8
  0
VERTEX
  8
1
  6
CONTINUOUS
 62
    16
  5
70F
 10
-6160.298751
 20
-4048.955632
 30
0.0
 70
     8
  0
VERTEX
  8
1
  6
CONTINUOUS
 62
    16
  5
710
 10
-6160.298965
 20
-4048.951848
 30
0.0
 70
     8
  0
VERTEX
  8
1
  6
CONTINUOUS
 62
    16
  5
711
 10
-6160.299283
 20
-4048.947854
 30
0.0
 70
     8
  0
VERTEX
  8
1
  6
CONTINUOUS
 62
    16
  5
712
 10
-6160.299725
 20
-4048.943658
 30
0.0
 70
     8
  0
VERTEX
  8
1
  6
CONTINUOUS
 62
    16
  5
713
 10
-6160.300309
 20
-4048.939266
 30
0.0
 70
     8
  0
VERTEX
  8
1
  6
CONTINUOUS
 62
    16
  5
714
 10
-6160.301053
 20
-4048.934684
 30
0.0
 70
     8
  0
VERTEX
  8
1
  6
CONTINUOUS
 62
    16
  5
715
 10
-6160.301976
 20
-4048.929919
 30
0.0
 70
     8
  0
VERTEX
  8
1
  6
CONTINUOUS
 62
    16
  5
716
 10
-6160.303095
 20
-4048.924977
 30
0.0
 70
     8
  0
VERTEX
  8
1
  6
CONTINUOUS
 62
    16
  5
717
 10
-6160.304431
 20
-4048.919865
 30
0.0
 70
     8
  0
VERTEX
  8
1
  6
CONTINUOUS
 62
    16
  5
718
 10
-6160.305997
 20
-4048.914593
 30
0.0
 70
     8
  0
VERTEX
  8
1
  6
CONTINUOUS
 62
    16
  5
719
 10
-6160.307792
 20
-4048.909184
 30
0.0
 70
     8
  0
VERTEX
  8
1
  6
CONTINUOUS
 62
    16
  5
71A
 10
-6160.309814
 20
-4048.903667
 30
0.0
 70
     8
  0
VERTEX
  8
1
  6
CONTINUOUS
 62
    16
  5
71B
 10
-6160.312057
 20
-4048.898069
 30
0.0
 70
     8
  0
VERTEX
  8
1
  6
CONTINUOUS
 62
    16
  5
71C
 10
-6160.314517
 20
-4048.892419
 30
0.0
 70
     8
  0
VERTEX
  8
1
  6
CONTINUOUS
 62
    16
  5
71D
 10
-6160.317191
 20
-4048.886744
 30
0.0
 70
     8
  0
VERTEX
  8
1
  6
CONTINUOUS
 62
    16
  5
71E
 10
-6160.320074
 20
-4048.881073
 30
0.0
 70
     8
  0
VERTEX
  8
1
  6
CONTINUOUS
 62
    16
  5
71F
 10
-6160.323162
 20
-4048.875432
 30
0.0
 70
     8
  0
VERTEX
  8
1
  6
CONTINUOUS
 62
    16
  5
720
 10
-6160.32645
 20
-4048.869851
 30
0.0
 70
     8
  0
VERTEX
  8
1
  6
CONTINUOUS
 62
    16
  5
721
 10
-6160.329936
 20
-4048.864356
 30
0.0
 70
     8
  0
VERTEX
  8
1
  6
CONTINUOUS
 62
    16
  5
722
 10
-6160.333612
 20
-4048.858974
 30
0.0
 70
     8
  0
VERTEX
  8
1
  6
CONTINUOUS
 62
    16
  5
723
 10
-6160.337464
 20
-4048.853717
 30
0.0
 70
     8
  0
VERTEX
  8
1
  6
CONTINUOUS
 62
    16
  5
724
 10
-6160.341478
 20
-4048.848597
 30
0.0
 70
     8
  0
VERTEX
  8
1
  6
CONTINUOUS
 62
    16
  5
725
 10
-6160.345638
 20
-4048.843625
 30
0.0
 70
     8
  0
VERTEX
  8
1
  6
CONTINUOUS
 62
    16
  5
726
 10
-6160.349927
 20
-4048.838813
 30
0.0
 70
     8
  0
VERTEX
  8
1
  6
CONTINUOUS
 62
    16
  5
727
 10
-6160.35433
 20
-4048.834171
 30
0.0
 70
     8
  0
VERTEX
  8
1
  6
CONTINUOUS
 62
    16
  5
728
 10
-6160.358832
 20
-4048.82971
 30
0.0
 70
     8
  0
VERTEX
  8
1
  6
CONTINUOUS
 62
    16
  5
729
 10
-6160.363416
 20
-4048.825442
 30
0.0
 70
     8
  0
VERTEX
  8
1
  6
CONTINUOUS
 62
    16
  5
72A
 10
-6160.368068
 20
-4048.821377
 30
0.0
 70
     8
  0
VERTEX
  8
1
  6
CONTINUOUS
 62
    16
  5
72B
 10
-6160.37277
 20
-4048.817527
 30
0.0
 70
     8
  0
VERTEX
  8
1
  6
CONTINUOUS
 62
    16
  5
72C
 10
-6160.377508
 20
-4048.813901
 30
0.0
 70
     8
  0
VERTEX
  8
1
  6
CONTINUOUS
 62
    16
  5
72D
 10
-6160.382261
 20
-4048.810496
 30
0.0
 70
     8
  0
VERTEX
  8
1
  6
CONTINUOUS
 62
    16
  5
72E
 10
-6160.387009
 20
-4048.807308
 30
0.0
 70
     8
  0
VERTEX
  8
1
  6
CONTINUOUS
 62
    16
  5
72F
 10
-6160.391732
 20
-4048.804332
 30
0.0
 70
     8
  0
VERTEX
  8
1
  6
CONTINUOUS
 62
    16
  5
730
 10
-6160.396411
 20
-4048.801564
 30
0.0
 70
     8
  0
VERTEX
  8
1
  6
CONTINUOUS
 62
    16
  5
731
 10
-6160.401024
 20
-4048.798999
 30
0.0
 70
     8
  0
VERTEX
  8
1
  6
CONTINUOUS
 62
    16
  5
732
 10
-6160.405553
 20
-4048.796633
 30
0.0
 70
     8
  0
VERTEX
  8
1
  6
CONTINUOUS
 62
    16
  5
733
 10
-6160.409976
 20
-4048.794461
 30
0.0
 70
     8
  0
VERTEX
  8
1
  6
CONTINUOUS
 62
    16
  5
734
 10
-6160.414274
 20
-4048.792479
 30
0.0
 70
     8
  0
VERTEX
  8
1
  6
CONTINUOUS
 62
    16
  5
735
 10
-6160.418426
 20
-4048.790682
 30
0.0
 70
     8
  0
VERTEX
  8
1
  6
CONTINUOUS
 62
    16
  5
736
 10
-6160.422415
 20
-4048.789065
 30
0.0
 70
     8
  0
VERTEX
  8
1
  6
CONTINUOUS
 62
    16
  5
737
 10
-6160.426234
 20
-4048.787616
 30
0.0
 70
     8
  0
VERTEX
  8
1
  6
CONTINUOUS
 62
    16
  5
738
 10
-6160.429877
 20
-4048.786325
 30
0.0
 70
     8
  0
VERTEX
  8
1
  6
CONTINUOUS
 62
    16
  5
739
 10
-6160.433339
 20
-4048.785178
 30
0.0
 70
     8
  0
VERTEX
  8
1
  6
CONTINUOUS
 62
    16
  5
73A
 10
-6160.436616
 20
-4048.784165
 30
0.0
 70
     8
  0
VERTEX
  8
1
  6
CONTINUOUS
 62
    16
  5
73B
 10
-6160.439702
 20
-4048.783274
 30
0.0
 70
     8
  0
VERTEX
  8
1
  6
CONTINUOUS
 62
    16
  5
73C
 10
-6160.442593
 20
-4048.782492
 30
0.0
 70
     8
  0
VERTEX
  8
1
  6
CONTINUOUS
 62
    16
  5
73D
 10
-6160.445283
 20
-4048.781809
 30
0.0
 70
     8
  0
VERTEX
  8
1
  6
CONTINUOUS
 62
    16
  5
73E
 10
-6160.447767
 20
-4048.781211
 30
0.0
 70
     8
  0
VERTEX
  8
1
  6
CONTINUOUS
 62
    16
  5
73F
 10
-6160.450042
 20
-4048.780687
 30
0.0
 70
     8
  0
VERTEX
  8
1
  6
CONTINUOUS
 62
    16
  5
740
 10
-6160.452105
 20
-4048.780227
 30
0.0
 70
     8
  0
VERTEX
  8
1
  6
CONTINUOUS
 62
    16
  5
741
 10
-6160.453974
 20
-4048.779823
 30
0.0
 70
     8
  0
VERTEX
  8
1
  6
CONTINUOUS
 62
    16
  5
742
 10
-6160.455671
 20
-4048.779469
 30
0.0
 70
     8
  0
VERTEX
  8
1
  6
CONTINUOUS
 62
    16
  5
743
 10
-6160.457217
 20
-4048.779159
 30
0.0
 70
     8
  0
VERTEX
  8
1
  6
CONTINUOUS
 62
    16
  5
744
 10
-6160.458633
 20
-4048.778886
 30
0.0
 70
     8
  0
VERTEX
  8
1
  6
CONTINUOUS
 62
    16
  5
745
 10
-6160.459942
 20
-4048.778644
 30
0.0
 70
     8
  0
VERTEX
  8
1
  6
CONTINUOUS
 62
    16
  5
746
 10
-6160.461165
 20
-4048.778428
 30
0.0
 70
     8
  0
VERTEX
  8
1
  6
CONTINUOUS
 62
    16
  5
747
 10
-6160.462323
 20
-4048.77823
 30
0.0
 70
     8
  0
VERTEX
  8
1
  6
CONTINUOUS
 62
    16
  5
748
 10
-6160.463438
 20
-4048.778044
 30
0.0
 70
     8
  0
VERTEX
  8
1
  6
CONTINUOUS
 62
    16
  5
749
 10
-6160.464531
 20
-4048.777865
 30
0.0
 70
     8
  0
VERTEX
  8
1
  6
CONTINUOUS
 62
    16
  5
74A
 10
-6160.297738
 20
-4048.96635
 30
0.0
 70
    16
  0
VERTEX
  8
1
  6
CONTINUOUS
 62
    16
  5
74B
 10
-6160.30053
 20
-4048.922599
 30
0.0
 70
    16
  0
VERTEX
  8
1
  6
CONTINUOUS
 62
    16
  5
74C
 10
-6160.326727
 20
-4048.862444
 30
0.0
 70
    16
  0
VERTEX
  8
1
  6
CONTINUOUS
 62
    16
  5
74D
 10
-6160.372177
 20
-4048.813763
 30
0.0
 70
    16
  0
VERTEX
  8
1
  6
CONTINUOUS
 62
    16
  5
74E
 10
-6160.421186
 20
-4048.787671
 30
0.0
 70
    16
  0
VERTEX
  8
1
  6
CONTINUOUS
 62
    16
  5
74F
 10
-6160.453633
 20
-4048.779647
 30
0.0
 70
    16
  0
VERTEX
  8
1
  6
CONTINUOUS
 62
    16
  5
750
 10
-6160.464531
 20
-4048.777865
 30
0.0
 70
    16
  0
SEQEND
  8
1
  6
CONTINUOUS
 62
    16
  5
751
  0
POLYLINE
  8
1
  6
CONTINUOUS
 62
    16
  5
752
 66
     1
 10
0.0
 20
0.0
 30
0.0
 70
     4
 75
     6
  0
VERTEX
  8
1
  6
CONTINUOUS
 62
    16
  5
753
 10
-6155.247749
 20
-4048.775131
 30
0.0
 70
    16
  0
VERTEX
  8
1
  6
CONTINUOUS
 62
    16
  5
754
 10
-6155.247749
 20
-4048.775131
 30
0.0
 70
     8
  0
VERTEX
  8
1
  6
CONTINUOUS
 62
    16
  5
755
 10
-6155.24995
 20
-4048.775133
 30
0.0
 70
     8
  0
VERTEX
  8
1
  6
CONTINUOUS
 62
    16
  5
756
 10
-6155.252173
 20
-4048.775141
 30
0.0
 70
     8
  0
VERTEX
  8
1
  6
CONTINUOUS
 62
    16
  5
757
 10
-6155.254441
 20
-4048.775164
 30
0.0
 70
     8
  0
VERTEX
  8
1
  6
CONTINUOUS
 62
    16
  5
758
 10
-6155.256776
 20
-4048.775209
 30
0.0
 70
     8
  0
VERTEX
  8
1
  6
CONTINUOUS
 62
    16
  5
759
 10
-6155.259201
 20
-4048.775282
 30
0.0
 70
     8
  0
VERTEX
  8
1
  6
CONTINUOUS
 62
    16
  5
75A
 10
-6155.261739
 20
-4048.775392
 30
0.0
 70
     8
  0
VERTEX
  8
1
  6
CONTINUOUS
 62
    16
  5
75B
 10
-6155.264411
 20
-4048.775545
 30
0.0
 70
     8
  0
VERTEX
  8
1
  6
CONTINUOUS
 62
    16
  5
75C
 10
-6155.26724
 20
-4048.775749
 30
0.0
 70
     8
  0
VERTEX
  8
1
  6
CONTINUOUS
 62
    16
  5
75D
 10
-6155.270249
 20
-4048.776011
 30
0.0
 70
     8
  0
VERTEX
  8
1
  6
CONTINUOUS
 62
    16
  5
75E
 10
-6155.27346
 20
-4048.776338
 30
0.0
 70
     8
  0
VERTEX
  8
1
  6
CONTINUOUS
 62
    16
  5
75F
 10
-6155.27689
 20
-4048.776739
 30
0.0
 70
     8
  0
VERTEX
  8
1
  6
CONTINUOUS
 62
    16
  5
760
 10
-6155.280536
 20
-4048.777229
 30
0.0
 70
     8
  0
VERTEX
  8
1
  6
CONTINUOUS
 62
    16
  5
761
 10
-6155.284391
 20
-4048.777826
 30
0.0
 70
     8
  0
VERTEX
  8
1
  6
CONTINUOUS
 62
    16
  5
762
 10
-6155.288447
 20
-4048.778545
 30
0.0
 70
     8
  0
VERTEX
  8
1
  6
CONTINUOUS
 62
    16
  5
763
 10
-6155.292695
 20
-4048.779405
 30
0.0
 70
     8
  0
VERTEX
  8
1
  6
CONTINUOUS
 62
    16
  5
764
 10
-6155.297128
 20
-4048.780421
 30
0.0
 70
     8
  0
VERTEX
  8
1
  6
CONTINUOUS
 62
    16
  5
765
 10
-6155.301737
 20
-4048.781611
 30
0.0
 70
     8
  0
VERTEX
  8
1
  6
CONTINUOUS
 62
    16
  5
766
 10
-6155.306515
 20
-4048.782991
 30
0.0
 70
     8
  0
VERTEX
  8
1
  6
CONTINUOUS
 62
    16
  5
767
 10
-6155.311453
 20
-4048.784579
 30
0.0
 70
     8
  0
VERTEX
  8
1
  6
CONTINUOUS
 62
    16
  5
768
 10
-6155.316544
 20
-4048.786391
 30
0.0
 70
     8
  0
VERTEX
  8
1
  6
CONTINUOUS
 62
    16
  5
769
 10
-6155.321776
 20
-4048.78844
 30
0.0
 70
     8
  0
VERTEX
  8
1
  6
CONTINUOUS
 62
    16
  5
76A
 10
-6155.327126
 20
-4048.790724
 30
0.0
 70
     8
  0
VERTEX
  8
1
  6
CONTINUOUS
 62
    16
  5
76B
 10
-6155.332563
 20
-4048.793235
 30
0.0
 70
     8
  0
VERTEX
  8
1
  6
CONTINUOUS
 62
    16
  5
76C
 10
-6155.338062
 20
-4048.795967
 30
0.0
 70
     8
  0
VERTEX
  8
1
  6
CONTINUOUS
 62
    16
  5
76D
 10
-6155.343595
 20
-4048.798913
 30
0.0
 70
     8
  0
VERTEX
  8
1
  6
CONTINUOUS
 62
    16
  5
76E
 10
-6155.349132
 20
-4048.802066
 30
0.0
 70
     8
  0
VERTEX
  8
1
  6
CONTINUOUS
 62
    16
  5
76F
 10
-6155.354646
 20
-4048.80542
 30
0.0
 70
     8
  0
VERTEX
  8
1
  6
CONTINUOUS
 62
    16
  5
770
 10
-6155.36011
 20
-4048.808968
 30
0.0
 70
     8
  0
VERTEX
  8
1
  6
CONTINUOUS
 62
    16
  5
771
 10
-6155.365496
 20
-4048.812703
 30
0.0
 70
     8
  0
VERTEX
  8
1
  6
CONTINUOUS
 62
    16
  5
772
 10
-6155.370775
 20
-4048.816617
 30
0.0
 70
     8
  0
VERTEX
  8
1
  6
CONTINUOUS
 62
    16
  5
773
 10
-6155.375924
 20
-4048.820706
 30
0.0
 70
     8
  0
VERTEX
  8
1
  6
CONTINUOUS
 62
    16
  5
774
 10
-6155.380932
 20
-4048.824961
 30
0.0
 70
     8
  0
VERTEX
  8
1
  6
CONTINUOUS
 62
    16
  5
775
 10
-6155.385795
 20
-4048.829379
 30
0.0
 70
     8
  0
VERTEX
  8
1
  6
CONTINUOUS
 62
    16
  5
776
 10
-6155.390506
 20
-4048.833952
 30
0.0
 70
     8
  0
VERTEX
  8
1
  6
CONTINUOUS
 62
    16
  5
777
 10
-6155.395059
 20
-4048.838676
 30
0.0
 70
     8
  0
VERTEX
  8
1
  6
CONTINUOUS
 62
    16
  5
778
 10
-6155.399449
 20
-4048.843543
 30
0.0
 70
     8
  0
VERTEX
  8
1
  6
CONTINUOUS
 62
    16
  5
779
 10
-6155.40367
 20
-4048.848549
 30
0.0
 70
     8
  0
VERTEX
  8
1
  6
CONTINUOUS
 62
    16
  5
77A
 10
-6155.407715
 20
-4048.853686
 30
0.0
 70
     8
  0
VERTEX
  8
1
  6
CONTINUOUS
 62
    16
  5
77B
 10
-6155.41158
 20
-4048.858951
 30
0.0
 70
     8
  0
VERTEX
  8
1
  6
CONTINUOUS
 62
    16
  5
77C
 10
-6155.415258
 20
-4048.864336
 30
0.0
 70
     8
  0
VERTEX
  8
1
  6
CONTINUOUS
 62
    16
  5
77D
 10
-6155.418744
 20
-4048.869832
 30
0.0
 70
     8
  0
VERTEX
  8
1
  6
CONTINUOUS
 62
    16
  5
77E
 10
-6155.422033
 20
-4048.875415
 30
0.0
 70
     8
  0
VERTEX
  8
1
  6
CONTINUOUS
 62
    16
  5
77F
 10
-6155.425121
 20
-4048.881057
 30
0.0
 70
     8
  0
VERTEX
  8
1
  6
CONTINUOUS
 62
    16
  5
780
 10
-6155.428005
 20
-4048.88673
 30
0.0
 70
     8
  0
VERTEX
  8
1
  6
CONTINUOUS
 62
    16
  5
781
 10
-6155.430679
 20
-4048.892406
 30
0.0
 70
     8
  0
VERTEX
  8
1
  6
CONTINUOUS
 62
    16
  5
782
 10
-6155.433139
 20
-4048.898058
 30
0.0
 70
     8
  0
VERTEX
  8
1
  6
CONTINUOUS
 62
    16
  5
783
 10
-6155.435383
 20
-4048.903657
 30
0.0
 70
     8
  0
VERTEX
  8
1
  6
CONTINUOUS
 62
    16
  5
784
 10
-6155.437404
 20
-4048.909176
 30
0.0
 70
     8
  0
VERTEX
  8
1
  6
CONTINUOUS
 62
    16
  5
785
 10
-6155.4392
 20
-4048.914586
 30
0.0
 70
     8
  0
VERTEX
  8
1
  6
CONTINUOUS
 62
    16
  5
786
 10
-6155.440766
 20
-4048.919861
 30
0.0
 70
     8
  0
VERTEX
  8
1
  6
CONTINUOUS
 62
    16
  5
787
 10
-6155.442102
 20
-4048.924974
 30
0.0
 70
     8
  0
VERTEX
  8
1
  6
CONTINUOUS
 62
    16
  5
788
 10
-6155.443222
 20
-4048.929917
 30
0.0
 70
     8
  0
VERTEX
  8
1
  6
CONTINUOUS
 62
    16
  5
789
 10
-6155.444145
 20
-4048.934684
 30
0.0
 70
     8
  0
VERTEX
  8
1
  6
CONTINUOUS
 62
    16
  5
78A
 10
-6155.444889
 20
-4048.939267
 30
0.0
 70
     8
  0
VERTEX
  8
1
  6
CONTINUOUS
 62
    16
  5
78B
 10
-6155.445473
 20
-4048.94366
 30
0.0
 70
     8
  0
VERTEX
  8
1
  6
CONTINUOUS
 62
    16
  5
78C
 10
-6155.445915
 20
-4048.947857
 30
0.0
 70
     8
  0
VERTEX
  8
1
  6
CONTINUOUS
 62
    16
  5
78D
 10
-6155.446233
 20
-4048.951852
 30
0.0
 70
     8
  0
VERTEX
  8
1
  6
CONTINUOUS
 62
    16
  5
78E
 10
-6155.446447
 20
-4048.955638
 30
0.0
 70
     8
  0
VERTEX
  8
1
  6
CONTINUOUS
 62
    16
  5
78F
 10
-6155.446574
 20
-4048.959209
 30
0.0
 70
     8
  0
VERTEX
  8
1
  6
CONTINUOUS
 62
    16
  5
790
 10
-6155.446633
 20
-4048.962557
 30
0.0
 70
     8
  0
VERTEX
  8
1
  6
CONTINUOUS
 62
    16
  5
791
 10
-6155.44664
 20
-4048.965683
 30
0.0
 70
     8
  0
VERTEX
  8
1
  6
CONTINUOUS
 62
    16
  5
792
 10
-6155.446603
 20
-4048.968603
 30
0.0
 70
     8
  0
VERTEX
  8
1
  6
CONTINUOUS
 62
    16
  5
793
 10
-6155.446526
 20
-4048.971341
 30
0.0
 70
     8
  0
VERTEX
  8
1
  6
CONTINUOUS
 62
    16
  5
794
 10
-6155.446414
 20
-4048.97392
 30
0.0
 70
     8
  0
VERTEX
  8
1
  6
CONTINUOUS
 62
    16
  5
795
 10
-6155.446272
 20
-4048.976361
 30
0.0
 70
     8
  0
VERTEX
  8
1
  6
CONTINUOUS
 62
    16
  5
796
 10
-6155.446106
 20
-4048.978688
 30
0.0
 70
     8
  0
VERTEX
  8
1
  6
CONTINUOUS
 62
    16
  5
797
 10
-6155.44592
 20
-4048.980924
 30
0.0
 70
     8
  0
VERTEX
  8
1
  6
CONTINUOUS
 62
    16
  5
798
 10
-6155.445718
 20
-4048.983092
 30
0.0
 70
     8
  0
VERTEX
  8
1
  6
CONTINUOUS
 62
    16
  5
799
 10
-6155.445507
 20
-4048.985214
 30
0.0
 70
     8
  0
VERTEX
  8
1
  6
CONTINUOUS
 62
    16
  5
79A
 10
-6155.445291
 20
-4048.987313
 30
0.0
 70
     8
  0
VERTEX
  8
1
  6
CONTINUOUS
 62
    16
  5
79B
 10
-6155.269719
 20
-4048.775131
 30
0.0
 70
    16
  0
VERTEX
  8
1
  6
CONTINUOUS
 62
    16
  5
79C
 10
-6155.314133
 20
-4048.782371
 30
0.0
 70
    16
  0
VERTEX
  8
1
  6
CONTINUOUS
 62
    16
  5
79D
 10
-6155.373013
 20
-4048.813727
 30
0.0
 70
    16
  0
VERTEX
  8
1
  6
CONTINUOUS
 62
    16
  5
79E
 10
-6155.418467
 20
-4048.862423
 30
0.0
 70
    16
  0
VERTEX
  8
1
  6
CONTINUOUS
 62
    16
  5
79F
 10
-6155.444668
 20
-4048.922595
 30
0.0
 70
    16
  0
VERTEX
  8
1
  6
CONTINUOUS
 62
    16
  5
7A0
 10
-6155.44746
 20
-4048.966359
 30
0.0
 70
    16
  0
VERTEX
  8
1
  6
CONTINUOUS
 62
    16
  5
7A1
 10
-6155.445291
 20
-4048.987313
 30
0.0
 70
    16
  0
SEQEND
  8
1
  6
CONTINUOUS
 62
    16
  5
7A2
  0
POLYLINE
  8
1
  6
CONTINUOUS
 62
    16
  5
7A3
 66
     1
 10
0.0
 20
0.0
 30
0.0
 70
     4
 75
     6
  0
VERTEX
  8
1
  6
CONTINUOUS
 62
    16
  5
7A4
 10
-6160.184433
 20
-4050.075131
 30
0.0
 70
    16
  0
VERTEX
  8
1
  6
CONTINUOUS
 62
    16
  5
7A5
 10
-6160.184433
 20
-4050.075131
 30
0.0
 70
     8
  0
VERTEX
  8
1
  6
CONTINUOUS
 62
    16
  5
7A6
 10
-6160.146543
 20
-4050.06632
 30
0.0
 70
     8
  0
VERTEX
  8
1
  6
CONTINUOUS
 62
    16
  5
7A7
 10
-6160.108456
 20
-4050.057497
 30
0.0
 70
     8
  0
VERTEX
  8
1
  6
CONTINUOUS
 62
    16
  5
7A8
 10
-6160.069976
 20
-4050.048651
 30
0.0
 70
     8
  0
VERTEX
  8
1
  6
CONTINUOUS
 62
    16
  5
7A9
 10
-6160.030905
 20
-4050.03977
 30
0.0
 70
     8
  0
VERTEX
  8
1
  6
CONTINUOUS
 62
    16
  5
7AA
 10
-6159.991047
 20
-4050.030843
 30
0.0
 70
     8
  0
VERTEX
  8
1
  6
CONTINUOUS
 62
    16
  5
7AB
 10
-6159.950204
 20
-4050.021858
 30
0.0
 70
     8
  0
VERTEX
  8
1
  6
CONTINUOUS
 62
    16
  5
7AC
 10
-6159.908181
 20
-4050.012804
 30
0.0
 70
     8
  0
VERTEX
  8
1
  6
CONTINUOUS
 62
    16
  5
7AD
 10
-6159.864779
 20
-4050.003669
 30
0.0
 70
     8
  0
VERTEX
  8
1
  6
CONTINUOUS
 62
    16
  5
7AE
 10
-6159.819803
 20
-4049.994442
 30
0.0
 70
     8
  0
VERTEX
  8
1
  6
CONTINUOUS
 62
    16
  5
7AF
 10
-6159.773055
 20
-4049.985111
 30
0.0
 70
     8
  0
VERTEX
  8
1
  6
CONTINUOUS
 62
    16
  5
7B0
 10
-6159.724371
 20
-4049.975673
 30
0.0
 70
     8
  0
VERTEX
  8
1
  6
CONTINUOUS
 62
    16
  5
7B1
 10
-6159.673716
 20
-4049.966165
 30
0.0
 70
     8
  0
VERTEX
  8
1
  6
CONTINUOUS
 62
    16
  5
7B2
 10
-6159.621088
 20
-4049.956631
 30
0.0
 70
     8
  0
VERTEX
  8
1
  6
CONTINUOUS
 62
    16
  5
7B3
 10
-6159.566483
 20
-4049.947114
 30
0.0
 70
     8
  0
VERTEX
  8
1
  6
CONTINUOUS
 62
    16
  5
7B4
 10
-6159.5099
 20
-4049.937661
 30
0.0
 70
     8
  0
VERTEX
  8
1
  6
CONTINUOUS
 62
    16
  5
7B5
 10
-6159.451335
 20
-4049.928315
 30
0.0
 70
     8
  0
VERTEX
  8
1
  6
CONTINUOUS
 62
    16
  5
7B6
 10
-6159.390786
 20
-4049.919122
 30
0.0
 70
     8
  0
VERTEX
  8
1
  6
CONTINUOUS
 62
    16
  5
7B7
 10
-6159.328251
 20
-4049.910125
 30
0.0
 70
     8
  0
VERTEX
  8
1
  6
CONTINUOUS
 62
    16
  5
7B8
 10
-6159.263727
 20
-4049.901369
 30
0.0
 70
     8
  0
VERTEX
  8
1
  6
CONTINUOUS
 62
    16
  5
7B9
 10
-6159.197212
 20
-4049.892899
 30
0.0
 70
     8
  0
VERTEX
  8
1
  6
CONTINUOUS
 62
    16
  5
7BA
 10
-6159.128767
 20
-4049.884756
 30
0.0
 70
     8
  0
VERTEX
  8
1
  6
CONTINUOUS
 62
    16
  5
7BB
 10
-6159.05872
 20
-4049.876959
 30
0.0
 70
     8
  0
VERTEX
  8
1
  6
CONTINUOUS
 62
    16
  5
7BC
 10
-6158.987461
 20
-4049.869527
 30
0.0
 70
     8
  0
VERTEX
  8
1
  6
CONTINUOUS
 62
    16
  5
7BD
 10
-6158.915382
 20
-4049.862476
 30
0.0
 70
     8
  0
VERTEX
  8
1
  6
CONTINUOUS
 62
    16
  5
7BE
 10
-6158.842873
 20
-4049.855823
 30
0.0
 70
     8
  0
VERTEX
  8
1
  6
CONTINUOUS
 62
    16
  5
7BF
 10
-6158.770327
 20
-4049.849585
 30
0.0
 70
     8
  0
VERTEX
  8
1
  6
CONTINUOUS
 62
    16
  5
7C0
 10
-6158.698133
 20
-4049.843779
 30
0.0
 70
     8
  0
VERTEX
  8
1
  6
CONTINUOUS
 62
    16
  5
7C1
 10
-6158.626684
 20
-4049.838421
 30
0.0
 70
     8
  0
VERTEX
  8
1
  6
CONTINUOUS
 62
    16
  5
7C2
 10
-6158.55637
 20
-4049.833529
 30
0.0
 70
     8
  0
VERTEX
  8
1
  6
CONTINUOUS
 62
    16
  5
7C3
 10
-6158.487584
 20
-4049.829119
 30
0.0
 70
     8
  0
VERTEX
  8
1
  6
CONTINUOUS
 62
    16
  5
7C4
 10
-6158.420618
 20
-4049.825203
 30
0.0
 70
     8
  0
VERTEX
  8
1
  6
CONTINUOUS
 62
    16
  5
7C5
 10
-6158.355378
 20
-4049.82177
 30
0.0
 70
     8
  0
VERTEX
  8
1
  6
CONTINUOUS
 62
    16
  5
7C6
 10
-6158.291673
 20
-4049.818802
 30
0.0
 70
     8
  0
VERTEX
  8
1
  6
CONTINUOUS
 62
    16
  5
7C7
 10
-6158.22931
 20
-4049.816284
 30
0.0
 70
     8
  0
VERTEX
  8
1
  6
CONTINUOUS
 62
    16
  5
7C8
 10
-6158.168099
 20
-4049.814199
 30
0.0
 70
     8
  0
VERTEX
  8
1
  6
CONTINUOUS
 62
    16
  5
7C9
 10
-6158.107846
 20
-4049.81253
 30
0.0
 70
     8
  0
VERTEX
  8
1
  6
CONTINUOUS
 62
    16
  5
7CA
 10
-6158.04836
 20
-4049.811261
 30
0.0
 70
     8
  0
VERTEX
  8
1
  6
CONTINUOUS
 62
    16
  5
7CB
 10
-6157.98945
 20
-4049.810375
 30
0.0
 70
     8
  0
VERTEX
  8
1
  6
CONTINUOUS
 62
    16
  5
7CC
 10
-6157.930924
 20
-4049.809856
 30
0.0
 70
     8
  0
VERTEX
  8
1
  6
CONTINUOUS
 62
    16
  5
7CD
 10
-6157.872589
 20
-4049.809686
 30
0.0
 70
     8
  0
VERTEX
  8
1
  6
CONTINUOUS
 62
    16
  5
7CE
 10
-6157.814255
 20
-4049.809856
 30
0.0
 70
     8
  0
VERTEX
  8
1
  6
CONTINUOUS
 62
    16
  5
7CF
 10
-6157.755728
 20
-4049.810375
 30
0.0
 70
     8
  0
VERTEX
  8
1
  6
CONTINUOUS
 62
    16
  5
7D0
 10
-6157.696818
 20
-4049.811261
 30
0.0
 70
     8
  0
VERTEX
  8
1
  6
CONTINUOUS
 62
    16
  5
7D1
 10
-6157.637332
 20
-4049.81253
 30
0.0
 70
     8
  0
VERTEX
  8
1
  6
CONTINUOUS
 62
    16
  5
7D2
 10
-6157.57708
 20
-4049.814199
 30
0.0
 70
     8
  0
VERTEX
  8
1
  6
CONTINUOUS
 62
    16
  5
7D3
 10
-6157.515868
 20
-4049.816284
 30
0.0
 70
     8
  0
VERTEX
  8
1
  6
CONTINUOUS
 62
    16
  5
7D4
 10
-6157.453505
 20
-4049.818802
 30
0.0
 70
     8
  0
VERTEX
  8
1
  6
CONTINUOUS
 62
    16
  5
7D5
 10
-6157.3898
 20
-4049.82177
 30
0.0
 70
     8
  0
VERTEX
  8
1
  6
CONTINUOUS
 62
    16
  5
7D6
 10
-6157.324561
 20
-4049.825203
 30
0.0
 70
     8
  0
VERTEX
  8
1
  6
CONTINUOUS
 62
    16
  5
7D7
 10
-6157.257595
 20
-4049.829119
 30
0.0
 70
     8
  0
VERTEX
  8
1
  6
CONTINUOUS
 62
    16
  5
7D8
 10
-6157.188808
 20
-4049.833529
 30
0.0
 70
     8
  0
VERTEX
  8
1
  6
CONTINUOUS
 62
    16
  5
7D9
 10
-6157.118494
 20
-4049.838421
 30
0.0
 70
     8
  0
VERTEX
  8
1
  6
CONTINUOUS
 62
    16
  5
7DA
 10
-6157.047045
 20
-4049.843779
 30
0.0
 70
     8
  0
VERTEX
  8
1
  6
CONTINUOUS
 62
    16
  5
7DB
 10
-6156.974852
 20
-4049.849585
 30
0.0
 70
     8
  0
VERTEX
  8
1
  6
CONTINUOUS
 62
    16
  5
7DC
 10
-6156.902305
 20
-4049.855823
 30
0.0
 70
     8
  0
VERTEX
  8
1
  6
CONTINUOUS
 62
    16
  5
7DD
 10
-6156.829796
 20
-4049.862476
 30
0.0
 70
     8
  0
VERTEX
  8
1
  6
CONTINUOUS
 62
    16
  5
7DE
 10
-6156.757717
 20
-4049.869527
 30
0.0
 70
     8
  0
VERTEX
  8
1
  6
CONTINUOUS
 62
    16
  5
7DF
 10
-6156.686458
 20
-4049.876959
 30
0.0
 70
     8
  0
VERTEX
  8
1
  6
CONTINUOUS
 62
    16
  5
7E0
 10
-6156.616411
 20
-4049.884756
 30
0.0
 70
     8
  0
VERTEX
  8
1
  6
CONTINUOUS
 62
    16
  5
7E1
 10
-6156.547967
 20
-4049.892899
 30
0.0
 70
     8
  0
VERTEX
  8
1
  6
CONTINUOUS
 62
    16
  5
7E2
 10
-6156.481451
 20
-4049.901369
 30
0.0
 70
     8
  0
VERTEX
  8
1
  6
CONTINUOUS
 62
    16
  5
7E3
 10
-6156.416927
 20
-4049.910125
 30
0.0
 70
     8
  0
VERTEX
  8
1
  6
CONTINUOUS
 62
    16
  5
7E4
 10
-6156.354392
 20
-4049.919122
 30
0.0
 70
     8
  0
VERTEX
  8
1
  6
CONTINUOUS
 62
    16
  5
7E5
 10
-6156.293843
 20
-4049.928315
 30
0.0
 70
     8
  0
VERTEX
  8
1
  6
CONTINUOUS
 62
    16
  5
7E6
 10
-6156.235279
 20
-4049.937661
 30
0.0
 70
     8
  0
VERTEX
  8
1
  6
CONTINUOUS
 62
    16
  5
7E7
 10
-6156.178695
 20
-4049.947114
 30
0.0
 70
     8
  0
VERTEX
  8
1
  6
CONTINUOUS
 62
    16
  5
7E8
 10
-6156.124091
 20
-4049.956631
 30
0.0
 70
     8
  0
VERTEX
  8
1
  6
CONTINUOUS
 62
    16
  5
7E9
 10
-6156.071462
 20
-4049.966165
 30
0.0
 70
     8
  0
VERTEX
  8
1
  6
CONTINUOUS
 62
    16
  5
7EA
 10
-6156.020807
 20
-4049.975673
 30
0.0
 70
     8
  0
VERTEX
  8
1
  6
CONTINUOUS
 62
    16
  5
7EB
 10
-6155.972123
 20
-4049.985111
 30
0.0
 70
     8
  0
VERTEX
  8
1
  6
CONTINUOUS
 62
    16
  5
7EC
 10
-6155.925375
 20
-4049.994442
 30
0.0
 70
     8
  0
VERTEX
  8
1
  6
CONTINUOUS
 62
    16
  5
7ED
 10
-6155.880399
 20
-4050.003669
 30
0.0
 70
     8
  0
VERTEX
  8
1
  6
CONTINUOUS
 62
    16
  5
7EE
 10
-6155.836998
 20
-4050.012804
 30
0.0
 70
     8
  0
VERTEX
  8
1
  6
CONTINUOUS
 62
    16
  5
7EF
 10
-6155.794974
 20
-4050.021858
 30
0.0
 70
     8
  0
VERTEX
  8
1
  6
CONTINUOUS
 62
    16
  5
7F0
 10
-6155.754132
 20
-4050.030843
 30
0.0
 70
     8
  0
VERTEX
  8
1
  6
CONTINUOUS
 62
    16
  5
7F1
 10
-6155.714273
 20
-4050.03977
 30
0.0
 70
     8
  0
VERTEX
  8
1
  6
CONTINUOUS
 62
    16
  5
7F2
 10
-6155.675203
 20
-4050.048651
 30
0.0
 70
     8
  0
VERTEX
  8
1
  6
CONTINUOUS
 62
    16
  5
7F3
 10
-6155.636722
 20
-4050.057497
 30
0.0
 70
     8
  0
VERTEX
  8
1
  6
CONTINUOUS
 62
    16
  5
7F4
 10
-6155.598636
 20
-4050.06632
 30
0.0
 70
     8
  0
VERTEX
  8
1
  6
CONTINUOUS
 62
    16
  5
7F5
 10
-6155.560746
 20
-4050.075131
 30
0.0
 70
     8
  0
VERTEX
  8
1
  6
CONTINUOUS
 62
    16
  5
7F6
 10
-6159.805863
 20
-4049.987036
 30
0.0
 70
    16
  0
VERTEX
  8
1
  6
CONTINUOUS
 62
    16
  5
7F7
 10
-6159.230448
 20
-4049.88739
 30
0.0
 70
    16
  0
VERTEX
  8
1
  6
CONTINUOUS
 62
    16
  5
7F8
 10
-6158.455616
 20
-4049.820799
 30
0.0
 70
    16
  0
VERTEX
  8
1
  6
CONTINUOUS
 62
    16
  5
7F9
 10
-6157.872589
 20
-4049.80413
 30
0.0
 70
    16
  0
VERTEX
  8
1
  6
CONTINUOUS
 62
    16
  5
7FA
 10
-6157.289562
 20
-4049.820799
 30
0.0
 70
    16
  0
VERTEX
  8
1
  6
CONTINUOUS
 62
    16
  5
7FB
 10
-6156.514731
 20
-4049.88739
 30
0.0
 70
    16
  0
VERTEX
  8
1
  6
CONTINUOUS
 62
    16
  5
7FC
 10
-6155.939316
 20
-4049.987036
 30
0.0
 70
    16
  0
VERTEX
  8
1
  6
CONTINUOUS
 62
    16
  5
7FD
 10
-6155.560746
 20
-4050.075131
 30
0.0
 70
    16
  0
SEQEND
  8
1
  6
CONTINUOUS
 62
    16
  5
7FE
  0
POLYLINE
  8
1
  6
CONTINUOUS
 62
    16
  5
7FF
 66
     1
 10
0.0
 20
0.0
 30
0.0
 70
     4
 75
     6
  0
VERTEX
  8
1
  6
CONTINUOUS
 62
    16
  5
800
 10
-6155.480569
 20
-4048.966512
 30
0.0
 70
    16
  0
VERTEX
  8
1
  6
CONTINUOUS
 62
    16
  5
801
 10
-6155.480569
 20
-4048.966512
 30
0.0
 70
     8
  0
VERTEX
  8
1
  6
CONTINUOUS
 62
    16
  5
802
 10
-6155.480453
 20
-4048.966631
 30
0.0
 70
     8
  0
VERTEX
  8
1
  6
CONTINUOUS
 62
    16
  5
803
 10
-6155.480334
 20
-4048.966752
 30
0.0
 70
     8
  0
VERTEX
  8
1
  6
CONTINUOUS
 62
    16
  5
804
 10
-6155.480209
 20
-4048.966878
 30
0.0
 70
     8
  0
VERTEX
  8
1
  6
CONTINUOUS
 62
    16
  5
805
 10
-6155.480076
 20
-4048.967011
 30
0.0
 70
     8
  0
VERTEX
  8
1
  6
CONTINUOUS
 62
    16
  5
806
 10
-6155.479931
 20
-4048.967155
 30
0.0
 70
     8
  0
VERTEX
  8
1
  6
CONTINUOUS
 62
    16
  5
807
 10
-6155.479772
 20
-4048.967311
 30
0.0
 70
     8
  0
VERTEX
  8
1
  6
CONTINUOUS
 62
    16
  5
808
 10
-6155.479595
 20
-4048.967482
 30
0.0
 70
     8
  0
VERTEX
  8
1
  6
CONTINUOUS
 62
    16
  5
809
 10
-6155.479398
 20
-4048.96767
 30
0.0
 70
     8
  0
VERTEX
  8
1
  6
CONTINUOUS
 62
    16
  5
80A
 10
-6155.479178
 20
-4048.967879
 30
0.0
 70
     8
  0
VERTEX
  8
1
  6
CONTINUOUS
 62
    16
  5
80B
 10
-6155.478932
 20
-4048.96811
 30
0.0
 70
     8
  0
VERTEX
  8
1
  6
CONTINUOUS
 62
    16
  5
80C
 10
-6155.478657
 20
-4048.968367
 30
0.0
 70
     8
  0
VERTEX
  8
1
  6
CONTINUOUS
 62
    16
  5
80D
 10
-6155.478349
 20
-4048.96865
 30
0.0
 70
     8
  0
VERTEX
  8
1
  6
CONTINUOUS
 62
    16
  5
80E
 10
-6155.478005
 20
-4048.968964
 30
0.0
 70
     8
  0
VERTEX
  8
1
  6
CONTINUOUS
 62
    16
  5
80F
 10
-6155.477619
 20
-4048.969309
 30
0.0
 70
     8
  0
VERTEX
  8
1
  6
CONTINUOUS
 62
    16
  5
810
 10
-6155.477189
 20
-4048.969688
 30
0.0
 70
     8
  0
VERTEX
  8
1
  6
CONTINUOUS
 62
    16
  5
811
 10
-6155.476711
 20
-4048.970103
 30
0.0
 70
     8
  0
VERTEX
  8
1
  6
CONTINUOUS
 62
    16
  5
812
 10
-6155.476179
 20
-4048.970557
 30
0.0
 70
     8
  0
VERTEX
  8
1
  6
CONTINUOUS
 62
    16
  5
813
 10
-6155.475591
 20
-4048.971051
 30
0.0
 70
     8
  0
VERTEX
  8
1
  6
CONTINUOUS
 62
    16
  5
814
 10
-6155.474942
 20
-4048.971589
 30
0.0
 70
     8
  0
VERTEX
  8
1
  6
CONTINUOUS
 62
    16
  5
815
 10
-6155.474229
 20
-4048.972172
 30
0.0
 70
     8
  0
VERTEX
  8
1
  6
CONTINUOUS
 62
    16
  5
816
 10
-6155.473449
 20
-4048.972801
 30
0.0
 70
     8
  0
VERTEX
  8
1
  6
CONTINUOUS
 62
    16
  5
817
 10
-6155.472607
 20
-4048.973469
 30
0.0
 70
     8
  0
VERTEX
  8
1
  6
CONTINUOUS
 62
    16
  5
818
 10
-6155.471709
 20
-4048.974168
 30
0.0
 70
     8
  0
VERTEX
  8
1
  6
CONTINUOUS
 62
    16
  5
819
 10
-6155.470763
 20
-4048.974891
 30
0.0
 70
     8
  0
VERTEX
  8
1
  6
CONTINUOUS
 62
    16
  5
81A
 10
-6155.469774
 20
-4048.97563
 30
0.0
 70
     8
  0
VERTEX
  8
1
  6
CONTINUOUS
 62
    16
  5
81B
 10
-6155.468749
 20
-4048.976376
 30
0.0
 70
     8
  0
VERTEX
  8
1
  6
CONTINUOUS
 62
    16
  5
81C
 10
-6155.467695
 20
-4048.977121
 30
0.0
 70
     8
  0
VERTEX
  8
1
  6
CONTINUOUS
 62
    16
  5
81D
 10
-6155.466617
 20
-4048.977857
 30
0.0
 70
     8
  0
VERTEX
  8
1
  6
CONTINUOUS
 62
    16
  5
81E
 10
-6155.465524
 20
-4048.978576
 30
0.0
 70
     8
  0
VERTEX
  8
1
  6
CONTINUOUS
 62
    16
  5
81F
 10
-6155.46442
 20
-4048.979271
 30
0.0
 70
     8
  0
VERTEX
  8
1
  6
CONTINUOUS
 62
    16
  5
820
 10
-6155.463313
 20
-4048.979934
 30
0.0
 70
     8
  0
VERTEX
  8
1
  6
CONTINUOUS
 62
    16
  5
821
 10
-6155.462206
 20
-4048.980565
 30
0.0
 70
     8
  0
VERTEX
  8
1
  6
CONTINUOUS
 62
    16
  5
822
 10
-6155.461103
 20
-4048.981164
 30
0.0
 70
     8
  0
VERTEX
  8
1
  6
CONTINUOUS
 62
    16
  5
823
 10
-6155.460007
 20
-4048.981731
 30
0.0
 70
     8
  0
VERTEX
  8
1
  6
CONTINUOUS
 62
    16
  5
824
 10
-6155.458923
 20
-4048.982267
 30
0.0
 70
     8
  0
VERTEX
  8
1
  6
CONTINUOUS
 62
    16
  5
825
 10
-6155.457853
 20
-4048.982773
 30
0.0
 70
     8
  0
VERTEX
  8
1
  6
CONTINUOUS
 62
    16
  5
826
 10
-6155.456801
 20
-4048.983249
 30
0.0
 70
     8
  0
VERTEX
  8
1
  6
CONTINUOUS
 62
    16
  5
827
 10
-6155.455771
 20
-4048.983696
 30
0.0
 70
     8
  0
VERTEX
  8
1
  6
CONTINUOUS
 62
    16
  5
828
 10
-6155.454767
 20
-4048.984113
 30
0.0
 70
     8
  0
VERTEX
  8
1
  6
CONTINUOUS
 62
    16
  5
829
 10
-6155.453792
 20
-4048.984502
 30
0.0
 70
     8
  0
VERTEX
  8
1
  6
CONTINUOUS
 62
    16
  5
82A
 10
-6155.452849
 20
-4048.984863
 30
0.0
 70
     8
  0
VERTEX
  8
1
  6
CONTINUOUS
 62
    16
  5
82B
 10
-6155.451935
 20
-4048.985199
 30
0.0
 70
     8
  0
VERTEX
  8
1
  6
CONTINUOUS
 62
    16
  5
82C
 10
-6155.451047
 20
-4048.985512
 30
0.0
 70
     8
  0
VERTEX
  8
1
  6
CONTINUOUS
 62
    16
  5
82D
 10
-6155.450182
 20
-4048.985806
 30
0.0
 70
     8
  0
VERTEX
  8
1
  6
CONTINUOUS
 62
    16
  5
82E
 10
-6155.449337
 20
-4048.986083
 30
0.0
 70
     8
  0
VERTEX
  8
1
  6
CONTINUOUS
 62
    16
  5
82F
 10
-6155.448508
 20
-4048.986346
 30
0.0
 70
     8
  0
VERTEX
  8
1
  6
CONTINUOUS
 62
    16
  5
830
 10
-6155.447693
 20
-4048.986598
 30
0.0
 70
     8
  0
VERTEX
  8
1
  6
CONTINUOUS
 62
    16
  5
831
 10
-6155.446887
 20
-4048.986841
 30
0.0
 70
     8
  0
VERTEX
  8
1
  6
CONTINUOUS
 62
    16
  5
832
 10
-6155.446087
 20
-4048.987079
 30
0.0
 70
     8
  0
VERTEX
  8
1
  6
CONTINUOUS
 62
    16
  5
833
 10
-6155.445291
 20
-4048.987313
 30
0.0
 70
     8
  0
VERTEX
  8
1
  6
CONTINUOUS
 62
    16
  5
834
 10
-6155.479413
 20
-4048.967693
 30
0.0
 70
    16
  0
VERTEX
  8
1
  6
CONTINUOUS
 62
    16
  5
835
 10
-6155.475371
 20
-4048.97138
 30
0.0
 70
    16
  0
VERTEX
  8
1
  6
CONTINUOUS
 62
    16
  5
836
 10
-6155.464476
 20
-4048.979819
 30
0.0
 70
    16
  0
VERTEX
  8
1
  6
CONTINUOUS
 62
    16
  5
837
 10
-6155.453247
 20
-4048.98497
 30
0.0
 70
    16
  0
VERTEX
  8
1
  6
CONTINUOUS
 62
    16
  5
838
 10
-6155.445291
 20
-4048.987313
 30
0.0
 70
    16
  0
SEQEND
  8
1
  6
CONTINUOUS
 62
    16
  5
839
  0
POLYLINE
  8
1
  6
CONTINUOUS
 62
    16
  5
83A
 66
     1
 10
0.0
 20
0.0
 30
0.0
 70
     4
 75
     6
  0
VERTEX
  8
1
  6
CONTINUOUS
 62
    16
  5
83B
 10
-6155.560746
 20
-4050.075131
 30
0.0
 70
    16
  0
VERTEX
  8
1
  6
CONTINUOUS
 62
    16
  5
83C
 10
-6155.560746
 20
-4050.075131
 30
0.0
 70
     8
  0
VERTEX
  8
1
  6
CONTINUOUS
 62
    16
  5
83D
 10
-6155.560701
 20
-4050.074662
 30
0.0
 70
     8
  0
VERTEX
  8
1
  6
CONTINUOUS
 62
    16
  5
83E
 10
-6155.560654
 20
-4050.074178
 30
0.0
 70
     8
  0
VERTEX
  8
1
  6
CONTINUOUS
 62
    16
  5
83F
 10
-6155.560605
 20
-4050.073668
 30
0.0
 70
     8
  0
VERTEX
  8
1
  6
CONTINUOUS
 62
    16
  5
840
 10
-6155.560553
 20
-4050.073116
 30
0.0
 70
     8
  0
VERTEX
  8
1
  6
CONTINUOUS
 62
    16
  5
841
 10
-6155.560495
 20
-4050.07251
 30
0.0
 70
     8
  0
VERTEX
  8
1
  6
CONTINUOUS
 62
    16
  5
842
 10
-6155.56043
 20
-4050.071836
 30
0.0
 70
     8
  0
VERTEX
  8
1
  6
CONTINUOUS
 62
    16
  5
843
 10
-6155.560358
 20
-4050.07108
 30
0.0
 70
     8
  0
VERTEX
  8
1
  6
CONTINUOUS
 62
    16
  5
844
 10
-6155.560277
 20
-4050.070229
 30
0.0
 70
     8
  0
VERTEX
  8
1
  6
CONTINUOUS
 62
    16
  5
845
 10
-6155.560185
 20
-4050.069269
 30
0.0
 70
     8
  0
VERTEX
  8
1
  6
CONTINUOUS
 62
    16
  5
846
 10
-6155.560082
 20
-4050.068186
 30
0.0
 70
     8
  0
VERTEX
  8
1
  6
CONTINUOUS
 62
    16
  5
847
 10
-6155.559966
 20
-4050.066968
 30
0.0
 70
     8
  0
VERTEX
  8
1
  6
CONTINUOUS
 62
    16
  5
848
 10
-6155.559836
 20
-4050.065604
 30
0.0
 70
     8
  0
VERTEX
  8
1
  6
CONTINUOUS
 62
    16
  5
849
 10
-6155.559693
 20
-4050.064088
 30
0.0
 70
     8
  0
VERTEX
  8
1
  6
CONTINUOUS
 62
    16
  5
84A
 10
-6155.559534
 20
-4050.06241
 30
0.0
 70
     8
  0
VERTEX
  8
1
  6
CONTINUOUS
 62
    16
  5
84B
 10
-6155.559359
 20
-4050.060561
 30
0.0
 70
     8
  0
VERTEX
  8
1
  6
CONTINUOUS
 62
    16
  5
84C
 10
-6155.559168
 20
-4050.058533
 30
0.0
 70
     8
  0
VERTEX
  8
1
  6
CONTINUOUS
 62
    16
  5
84D
 10
-6155.558961
 20
-4050.056318
 30
0.0
 70
     8
  0
VERTEX
  8
1
  6
CONTINUOUS
 62
    16
  5
84E
 10
-6155.558735
 20
-4050.053908
 30
0.0
 70
     8
  0
VERTEX
  8
1
  6
CONTINUOUS
 62
    16
  5
84F
 10
-6155.558491
 20
-4050.051292
 30
0.0
 70
     8
  0
VERTEX
  8
1
  6
CONTINUOUS
 62
    16
  5
850
 10
-6155.558228
 20
-4050.048464
 30
0.0
 70
     8
  0
VERTEX
  8
1
  6
CONTINUOUS
 62
    16
  5
851
 10
-6155.557946
 20
-4050.045415
 30
0.0
 70
     8
  0
VERTEX
  8
1
  6
CONTINUOUS
 62
    16
  5
852
 10
-6155.557643
 20
-4050.042141
 30
0.0
 70
     8
  0
VERTEX
  8
1
  6
CONTINUOUS
 62
    16
  5
853
 10
-6155.55732
 20
-4050.038639
 30
0.0
 70
     8
  0
VERTEX
  8
1
  6
CONTINUOUS
 62
    16
  5
854
 10
-6155.556977
 20
-4050.034903
 30
0.0
 70
     8
  0
VERTEX
  8
1
  6
CONTINUOUS
 62
    16
  5
855
 10
-6155.556613
 20
-4050.030932
 30
0.0
 70
     8
  0
VERTEX
  8
1
  6
CONTINUOUS
 62
    16
  5
856
 10
-6155.556228
 20
-4050.026721
 30
0.0
 70
     8
  0
VERTEX
  8
1
  6
CONTINUOUS
 62
    16
  5
857
 10
-6155.555822
 20
-4050.022267
 30
0.0
 70
     8
  0
VERTEX
  8
1
  6
CONTINUOUS
 62
    16
  5
858
 10
-6155.555394
 20
-4050.017566
 30
0.0
 70
     8
  0
VERTEX
  8
1
  6
CONTINUOUS
 62
    16
  5
859
 10
-6155.554945
 20
-4050.012614
 30
0.0
 70
     8
  0
VERTEX
  8
1
  6
CONTINUOUS
 62
    16
  5
85A
 10
-6155.554474
 20
-4050.007407
 30
0.0
 70
     8
  0
VERTEX
  8
1
  6
CONTINUOUS
 62
    16
  5
85B
 10
-6155.553981
 20
-4050.001944
 30
0.0
 70
     8
  0
VERTEX
  8
1
  6
CONTINUOUS
 62
    16
  5
85C
 10
-6155.553466
 20
-4049.99622
 30
0.0
 70
     8
  0
VERTEX
  8
1
  6
CONTINUOUS
 62
    16
  5
85D
 10
-6155.552929
 20
-4049.990237
 30
0.0
 70
     8
  0
VERTEX
  8
1
  6
CONTINUOUS
 62
    16
  5
85E
 10
-6155.55237
 20
-4049.983991
 30
0.0
 70
     8
  0
VERTEX
  8
1
  6
CONTINUOUS
 62
    16
  5
85F
 10
-6155.551789
 20
-4049.977483
 30
0.0
 70
     8
  0
VERTEX
  8
1
  6
CONTINUOUS
 62
    16
  5
860
 10
-6155.551186
 20
-4049.97071
 30
0.0
 70
     8
  0
VERTEX
  8
1
  6
CONTINUOUS
 62
    16
  5
861
 10
-6155.550561
 20
-4049.963671
 30
0.0
 70
     8
  0
VERTEX
  8
1
  6
CONTINUOUS
 62
    16
  5
862
 10
-6155.549915
 20
-4049.956365
 30
0.0
 70
     8
  0
VERTEX
  8
1
  6
CONTINUOUS
 62
    16
  5
863
 10
-6155.549247
 20
-4049.948791
 30
0.0
 70
     8
  0
VERTEX
  8
1
  6
CONTINUOUS
 62
    16
  5
864
 10
-6155.548557
 20
-4049.940947
 30
0.0
 70
     8
  0
VERTEX
  8
1
  6
CONTINUOUS
 62
    16
  5
865
 10
-6155.547845
 20
-4049.932833
 30
0.0
 70
     8
  0
VERTEX
  8
1
  6
CONTINUOUS
 62
    16
  5
866
 10
-6155.547112
 20
-4049.924446
 30
0.0
 70
     8
  0
VERTEX
  8
1
  6
CONTINUOUS
 62
    16
  5
867
 10
-6155.546358
 20
-4049.915785
 30
0.0
 70
     8
  0
VERTEX
  8
1
  6
CONTINUOUS
 62
    16
  5
868
 10
-6155.545582
 20
-4049.906848
 30
0.0
 70
     8
  0
VERTEX
  8
1
  6
CONTINUOUS
 62
    16
  5
869
 10
-6155.544784
 20
-4049.897635
 30
0.0
 70
     8
  0
VERTEX
  8
1
  6
CONTINUOUS
 62
    16
  5
86A
 10
-6155.543966
 20
-4049.888142
 30
0.0
 70
     8
  0
VERTEX
  8
1
  6
CONTINUOUS
 62
    16
  5
86B
 10
-6155.543125
 20
-4049.878369
 30
0.0
 70
     8
  0
VERTEX
  8
1
  6
CONTINUOUS
 62
    16
  5
86C
 10
-6155.542264
 20
-4049.868315
 30
0.0
 70
     8
  0
VERTEX
  8
1
  6
CONTINUOUS
 62
    16
  5
86D
 10
-6155.541381
 20
-4049.857977
 30
0.0
 70
     8
  0
VERTEX
  8
1
  6
CONTINUOUS
 62
    16
  5
86E
 10
-6155.540477
 20
-4049.847354
 30
0.0
 70
     8
  0
VERTEX
  8
1
  6
CONTINUOUS
 62
    16
  5
86F
 10
-6155.539552
 20
-4049.836445
 30
0.0
 70
     8
  0
VERTEX
  8
1
  6
CONTINUOUS
 62
    16
  5
870
 10
-6155.538607
 20
-4049.825248
 30
0.0
 70
     8
  0
VERTEX
  8
1
  6
CONTINUOUS
 62
    16
  5
871
 10
-6155.53764
 20
-4049.813765
 30
0.0
 70
     8
  0
VERTEX
  8
1
  6
CONTINUOUS
 62
    16
  5
872
 10
-6155.536654
 20
-4049.801994
 30
0.0
 70
     8
  0
VERTEX
  8
1
  6
CONTINUOUS
 62
    16
  5
873
 10
-6155.535647
 20
-4049.789935
 30
0.0
 70
     8
  0
VERTEX
  8
1
  6
CONTINUOUS
 62
    16
  5
874
 10
-6155.53462
 20
-4049.777588
 30
0.0
 70
     8
  0
VERTEX
  8
1
  6
CONTINUOUS
 62
    16
  5
875
 10
-6155.533574
 20
-4049.764952
 30
0.0
 70
     8
  0
VERTEX
  8
1
  6
CONTINUOUS
 62
    16
  5
876
 10
-6155.532509
 20
-4049.752028
 30
0.0
 70
     8
  0
VERTEX
  8
1
  6
CONTINUOUS
 62
    16
  5
877
 10
-6155.531425
 20
-4049.738814
 30
0.0
 70
     8
  0
VERTEX
  8
1
  6
CONTINUOUS
 62
    16
  5
878
 10
-6155.530323
 20
-4049.72531
 30
0.0
 70
     8
  0
VERTEX
  8
1
  6
CONTINUOUS
 62
    16
  5
879
 10
-6155.529202
 20
-4049.711517
 30
0.0
 70
     8
  0
VERTEX
  8
1
  6
CONTINUOUS
 62
    16
  5
87A
 10
-6155.528063
 20
-4049.697435
 30
0.0
 70
     8
  0
VERTEX
  8
1
  6
CONTINUOUS
 62
    16
  5
87B
 10
-6155.526907
 20
-4049.683065
 30
0.0
 70
     8
  0
VERTEX
  8
1
  6
CONTINUOUS
 62
    16
  5
87C
 10
-6155.525734
 20
-4049.668408
 30
0.0
 70
     8
  0
VERTEX
  8
1
  6
CONTINUOUS
 62
    16
  5
87D
 10
-6155.524545
 20
-4049.653465
 30
0.0
 70
     8
  0
VERTEX
  8
1
  6
CONTINUOUS
 62
    16
  5
87E
 10
-6155.523341
 20
-4049.638236
 30
0.0
 70
     8
  0
VERTEX
  8
1
  6
CONTINUOUS
 62
    16
  5
87F
 10
-6155.522121
 20
-4049.622723
 30
0.0
 70
     8
  0
VERTEX
  8
1
  6
CONTINUOUS
 62
    16
  5
880
 10
-6155.520888
 20
-4049.606927
 30
0.0
 70
     8
  0
VERTEX
  8
1
  6
CONTINUOUS
 62
    16
  5
881
 10
-6155.51964
 20
-4049.590848
 30
0.0
 70
     8
  0
VERTEX
  8
1
  6
CONTINUOUS
 62
    16
  5
882
 10
-6155.51838
 20
-4049.574487
 30
0.0
 70
     8
  0
VERTEX
  8
1
  6
CONTINUOUS
 62
    16
  5
883
 10
-6155.517106
 20
-4049.557846
 30
0.0
 70
     8
  0
VERTEX
  8
1
  6
CONTINUOUS
 62
    16
  5
884
 10
-6155.515821
 20
-4049.540924
 30
0.0
 70
     8
  0
VERTEX
  8
1
  6
CONTINUOUS
 62
    16
  5
885
 10
-6155.514525
 20
-4049.523722
 30
0.0
 70
     8
  0
VERTEX
  8
1
  6
CONTINUOUS
 62
    16
  5
886
 10
-6155.513219
 20
-4049.506239
 30
0.0
 70
     8
  0
VERTEX
  8
1
  6
CONTINUOUS
 62
    16
  5
887
 10
-6155.511904
 20
-4049.488476
 30
0.0
 70
     8
  0
VERTEX
  8
1
  6
CONTINUOUS
 62
    16
  5
888
 10
-6155.510581
 20
-4049.470433
 30
0.0
 70
     8
  0
VERTEX
  8
1
  6
CONTINUOUS
 62
    16
  5
889
 10
-6155.50925
 20
-4049.452109
 30
0.0
 70
     8
  0
VERTEX
  8
1
  6
CONTINUOUS
 62
    16
  5
88A
 10
-6155.507913
 20
-4049.433505
 30
0.0
 70
     8
  0
VERTEX
  8
1
  6
CONTINUOUS
 62
    16
  5
88B
 10
-6155.50657
 20
-4049.41462
 30
0.0
 70
     8
  0
VERTEX
  8
1
  6
CONTINUOUS
 62
    16
  5
88C
 10
-6155.505223
 20
-4049.395455
 30
0.0
 70
     8
  0
VERTEX
  8
1
  6
CONTINUOUS
 62
    16
  5
88D
 10
-6155.503873
 20
-4049.376025
 30
0.0
 70
     8
  0
VERTEX
  8
1
  6
CONTINUOUS
 62
    16
  5
88E
 10
-6155.502525
 20
-4049.356402
 30
0.0
 70
     8
  0
VERTEX
  8
1
  6
CONTINUOUS
 62
    16
  5
88F
 10
-6155.501187
 20
-4049.336673
 30
0.0
 70
     8
  0
VERTEX
  8
1
  6
CONTINUOUS
 62
    16
  5
890
 10
-6155.499863
 20
-4049.316927
 30
0.0
 70
     8
  0
VERTEX
  8
1
  6
CONTINUOUS
 62
    16
  5
891
 10
-6155.498561
 20
-4049.297249
 30
0.0
 70
     8
  0
VERTEX
  8
1
  6
CONTINUOUS
 62
    16
  5
892
 10
-6155.497287
 20
-4049.277729
 30
0.0
 70
     8
  0
VERTEX
  8
1
  6
CONTINUOUS
 62
    16
  5
893
 10
-6155.496047
 20
-4049.258453
 30
0.0
 70
     8
  0
VERTEX
  8
1
  6
CONTINUOUS
 62
    16
  5
894
 10
-6155.494847
 20
-4049.239508
 30
0.0
 70
     8
  0
VERTEX
  8
1
  6
CONTINUOUS
 62
    16
  5
895
 10
-6155.493694
 20
-4049.220982
 30
0.0
 70
     8
  0
VERTEX
  8
1
  6
CONTINUOUS
 62
    16
  5
896
 10
-6155.492593
 20
-4049.202963
 30
0.0
 70
     8
  0
VERTEX
  8
1
  6
CONTINUOUS
 62
    16
  5
897
 10
-6155.491551
 20
-4049.185524
 30
0.0
 70
     8
  0
VERTEX
  8
1
  6
CONTINUOUS
 62
    16
  5
898
 10
-6155.490567
 20
-4049.168689
 30
0.0
 70
     8
  0
VERTEX
  8
1
  6
CONTINUOUS
 62
    16
  5
899
 10
-6155.489638
 20
-4049.152466
 30
0.0
 70
     8
  0
VERTEX
  8
1
  6
CONTINUOUS
 62
    16
  5
89A
 10
-6155.488765
 20
-4049.136865
 30
0.0
 70
     8
  0
VERTEX
  8
1
  6
CONTINUOUS
 62
    16
  5
89B
 10
-6155.487945
 20
-4049.121896
 30
0.0
 70
     8
  0
VERTEX
  8
1
  6
CONTINUOUS
 62
    16
  5
89C
 10
-6155.487177
 20
-4049.107568
 30
0.0
 70
     8
  0
VERTEX
  8
1
  6
CONTINUOUS
 62
    16
  5
89D
 10
-6155.48646
 20
-4049.09389
 30
0.0
 70
     8
  0
VERTEX
  8
1
  6
CONTINUOUS
 62
    16
  5
89E
 10
-6155.485791
 20
-4049.080872
 30
0.0
 70
     8
  0
VERTEX
  8
1
  6
CONTINUOUS
 62
    16
  5
89F
 10
-6155.48517
 20
-4049.068523
 30
0.0
 70
     8
  0
VERTEX
  8
1
  6
CONTINUOUS
 62
    16
  5
8A0
 10
-6155.484595
 20
-4049.056853
 30
0.0
 70
     8
  0
VERTEX
  8
1
  6
CONTINUOUS
 62
    16
  5
8A1
 10
-6155.484065
 20
-4049.045858
 30
0.0
 70
     8
  0
VERTEX
  8
1
  6
CONTINUOUS
 62
    16
  5
8A2
 10
-6155.483574
 20
-4049.035482
 30
0.0
 70
     8
  0
VERTEX
  8
1
  6
CONTINUOUS
 62
    16
  5
8A3
 10
-6155.483119
 20
-4049.025656
 30
0.0
 70
     8
  0
VERTEX
  8
1
  6
CONTINUOUS
 62
    16
  5
8A4
 10
-6155.482696
 20
-4049.016313
 30
0.0
 70
     8
  0
VERTEX
  8
1
  6
CONTINUOUS
 62
    16
  5
8A5
 10
-6155.482299
 20
-4049.007382
 30
0.0
 70
     8
  0
VERTEX
  8
1
  6
CONTINUOUS
 62
    16
  5
8A6
 10
-6155.481924
 20
-4048.998795
 30
0.0
 70
     8
  0
VERTEX
  8
1
  6
CONTINUOUS
 62
    16
  5
8A7
 10
-6155.481567
 20
-4048.990484
 30
0.0
 70
     8
  0
VERTEX
  8
1
  6
CONTINUOUS
 62
    16
  5
8A8
 10
-6155.481224
 20
-4048.982379
 30
0.0
 70
     8
  0
VERTEX
  8
1
  6
CONTINUOUS
 62
    16
  5
8A9
 10
-6155.48089
 20
-4048.974411
 30
0.0
 70
     8
  0
VERTEX
  8
1
  6
CONTINUOUS
 62
    16
  5
8AA
 10
-6155.48056
 20
-4048.966512
 30
0.0
 70
     8
  0
VERTEX
  8
1
  6
CONTINUOUS
 62
    16
  5
8AB
 10
-6155.560297
 20
-4050.070457
 30
0.0
 70
    16
  0
VERTEX
  8
1
  6
CONTINUOUS
 62
    16
  5
8AC
 10
-6155.558558
 20
-4050.052155
 30
0.0
 70
    16
  0
VERTEX
  8
1
  6
CONTINUOUS
 62
    16
  5
8AD
 10
-6155.554842
 20
-4050.011707
 30
0.0
 70
    16
  0
VERTEX
  8
1
  6
CONTINUOUS
 62
    16
  5
8AE
 10
-6155.548917
 20
-4049.945462
 30
0.0
 70
    16
  0
VERTEX
  8
1
  6
CONTINUOUS
 62
    16
  5
8AF
 10
-6155.54083
 20
-4049.85213
 30
0.0
 70
    16
  0
VERTEX
  8
1
  6
CONTINUOUS
 62
    16
  5
8B0
 10
-6155.530629
 20
-4049.730142
 30
0.0
 70
    16
  0
VERTEX
  8
1
  6
CONTINUOUS
 62
    16
  5
8B1
 10
-6155.518591
 20
-4049.579164
 30
0.0
 70
    16
  0
VERTEX
  8
1
  6
CONTINUOUS
 62
    16
  5
8B2
 10
-6155.505285
 20
-4049.400125
 30
0.0
 70
    16
  0
VERTEX
  8
1
  6
CONTINUOUS
 62
    16
  5
8B3
 10
-6155.491606
 20
-4049.193067
 30
0.0
 70
    16
  0
VERTEX
  8
1
  6
CONTINUOUS
 62
    16
  5
8B4
 10
-6155.483852
 20
-4049.045384
 30
0.0
 70
    16
  0
VERTEX
  8
1
  6
CONTINUOUS
 62
    16
  5
8B5
 10
-6155.48056
 20
-4048.966512
 30
0.0
 70
    16
  0
SEQEND
  8
1
  6
CONTINUOUS
 62
    16
  5
8B6
  0
POLYLINE
  8
1
  6
CONTINUOUS
 62
    16
  5
8B7
 66
     1
 10
0.0
 20
0.0
 30
0.0
 70
     4
 75
     6
  0
VERTEX
  8
1
  6
CONTINUOUS
 62
    16
  5
8B8
 10
-6160.264609
 20
-4048.966512
 30
0.0
 70
    16
  0
VERTEX
  8
1
  6
CONTINUOUS
 62
    16
  5
8B9
 10
-6160.264609
 20
-4048.966512
 30
0.0
 70
     8
  0
VERTEX
  8
1
  6
CONTINUOUS
 62
    16
  5
8BA
 10
-6160.264725
 20
-4048.96663
 30
0.0
 70
     8
  0
VERTEX
  8
1
  6
CONTINUOUS
 62
    16
  5
8BB
 10
-6160.264844
 20
-4048.966751
 30
0.0
 70
     8
  0
VERTEX
  8
1
  6
CONTINUOUS
 62
    16
  5
8BC
 10
-6160.264969
 20
-4048.966877
 30
0.0
 70
     8
  0
VERTEX
  8
1
  6
CONTINUOUS
 62
    16
  5
8BD
 10
-6160.265102
 20
-4048.967011
 30
0.0
 70
     8
  0
VERTEX
  8
1
  6
CONTINUOUS
 62
    16
  5
8BE
 10
-6160.265247
 20
-4048.967154
 30
0.0
 70
     8
  0
VERTEX
  8
1
  6
CONTINUOUS
 62
    16
  5
8BF
 10
-6160.265406
 20
-4048.96731
 30
0.0
 70
     8
  0
VERTEX
  8
1
  6
CONTINUOUS
 62
    16
  5
8C0
 10
-6160.265583
 20
-4048.967482
 30
0.0
 70
     8
  0
VERTEX
  8
1
  6
CONTINUOUS
 62
    16
  5
8C1
 10
-6160.26578
 20
-4048.96767
 30
0.0
 70
     8
  0
VERTEX
  8
1
  6
CONTINUOUS
 62
    16
  5
8C2
 10
-6160.266
 20
-4048.967879
 30
0.0
 70
     8
  0
VERTEX
  8
1
  6
CONTINUOUS
 62
    16
  5
8C3
 10
-6160.266246
 20
-4048.96811
 30
0.0
 70
     8
  0
VERTEX
  8
1
  6
CONTINUOUS
 62
    16
  5
8C4
 10
-6160.266521
 20
-4048.968366
 30
0.0
 70
     8
  0
VERTEX
  8
1
  6
CONTINUOUS
 62
    16
  5
8C5
 10
-6160.266828
 20
-4048.96865
 30
0.0
 70
     8
  0
VERTEX
  8
1
  6
CONTINUOUS
 62
    16
  5
8C6
 10
-6160.267173
 20
-4048.968963
 30
0.0
 70
     8
  0
VERTEX
  8
1
  6
CONTINUOUS
 62
    16
  5
8C7
 10
-6160.267558
 20
-4048.969308
 30
0.0
 70
     8
  0
VERTEX
  8
1
  6
CONTINUOUS
 62
    16
  5
8C8
 10
-6160.267988
 20
-4048.969687
 30
0.0
 70
     8
  0
VERTEX
  8
1
  6
CONTINUOUS
 62
    16
  5
8C9
 10
-6160.268467
 20
-4048.970103
 30
0.0
 70
     8
  0
VERTEX
  8
1
  6
CONTINUOUS
 62
    16
  5
8CA
 10
-6160.268998
 20
-4048.970557
 30
0.0
 70
     8
  0
VERTEX
  8
1
  6
CONTINUOUS
 62
    16
  5
8CB
 10
-6160.269586
 20
-4048.971052
 30
0.0
 70
     8
  0
VERTEX
  8
1
  6
CONTINUOUS
 62
    16
  5
8CC
 10
-6160.270234
 20
-4048.971589
 30
0.0
 70
     8
  0
VERTEX
  8
1
  6
CONTINUOUS
 62
    16
  5
8CD
 10
-6160.270948
 20
-4048.972173
 30
0.0
 70
     8
  0
VERTEX
  8
1
  6
CONTINUOUS
 62
    16
  5
8CE
 10
-6160.271727
 20
-4048.972802
 30
0.0
 70
     8
  0
VERTEX
  8
1
  6
CONTINUOUS
 62
    16
  5
8CF
 10
-6160.272569
 20
-4048.973471
 30
0.0
 70
     8
  0
VERTEX
  8
1
  6
CONTINUOUS
 62
    16
  5
8D0
 10
-6160.273467
 20
-4048.974171
 30
0.0
 70
     8
  0
VERTEX
  8
1
  6
CONTINUOUS
 62
    16
  5
8D1
 10
-6160.274414
 20
-4048.974894
 30
0.0
 70
     8
  0
VERTEX
  8
1
  6
CONTINUOUS
 62
    16
  5
8D2
 10
-6160.275403
 20
-4048.975633
 30
0.0
 70
     8
  0
VERTEX
  8
1
  6
CONTINUOUS
 62
    16
  5
8D3
 10
-6160.276428
 20
-4048.976379
 30
0.0
 70
     8
  0
VERTEX
  8
1
  6
CONTINUOUS
 62
    16
  5
8D4
 10
-6160.277482
 20
-4048.977124
 30
0.0
 70
     8
  0
VERTEX
  8
1
  6
CONTINUOUS
 62
    16
  5
8D5
 10
-6160.27856
 20
-4048.977861
 30
0.0
 70
     8
  0
VERTEX
  8
1
  6
CONTINUOUS
 62
    16
  5
8D6
 10
-6160.279654
 20
-4048.97858
 30
0.0
 70
     8
  0
VERTEX
  8
1
  6
CONTINUOUS
 62
    16
  5
8D7
 10
-6160.280758
 20
-4048.979274
 30
0.0
 70
     8
  0
VERTEX
  8
1
  6
CONTINUOUS
 62
    16
  5
8D8
 10
-6160.281866
 20
-4048.979937
 30
0.0
 70
     8
  0
VERTEX
  8
1
  6
CONTINUOUS
 62
    16
  5
8D9
 10
-6160.282974
 20
-4048.980567
 30
0.0
 70
     8
  0
VERTEX
  8
1
  6
CONTINUOUS
 62
    16
  5
8DA
 10
-6160.284079
 20
-4048.981164
 30
0.0
 70
     8
  0
VERTEX
  8
1
  6
CONTINUOUS
 62
    16
  5
8DB
 10
-6160.285176
 20
-4048.98173
 30
0.0
 70
     8
  0
VERTEX
  8
1
  6
CONTINUOUS
 62
    16
  5
8DC
 10
-6160.286261
 20
-4048.982265
 30
0.0
 70
     8
  0
VERTEX
  8
1
  6
CONTINUOUS
 62
    16
  5
8DD
 10
-6160.287332
 20
-4048.98277
 30
0.0
 70
     8
  0
VERTEX
  8
1
  6
CONTINUOUS
 62
    16
  5
8DE
 10
-6160.288385
 20
-4048.983244
 30
0.0
 70
     8
  0
VERTEX
  8
1
  6
CONTINUOUS
 62
    16
  5
8DF
 10
-6160.289416
 20
-4048.98369
 30
0.0
 70
     8
  0
VERTEX
  8
1
  6
CONTINUOUS
 62
    16
  5
8E0
 10
-6160.290421
 20
-4048.984106
 30
0.0
 70
     8
  0
VERTEX
  8
1
  6
CONTINUOUS
 62
    16
  5
8E1
 10
-6160.291398
 20
-4048.984493
 30
0.0
 70
     8
  0
VERTEX
  8
1
  6
CONTINUOUS
 62
    16
  5
8E2
 10
-6160.292342
 20
-4048.984853
 30
0.0
 70
     8
  0
VERTEX
  8
1
  6
CONTINUOUS
 62
    16
  5
8E3
 10
-6160.293257
 20
-4048.985188
 30
0.0
 70
     8
  0
VERTEX
  8
1
  6
CONTINUOUS
 62
    16
  5
8E4
 10
-6160.294146
 20
-4048.985501
 30
0.0
 70
     8
  0
VERTEX
  8
1
  6
CONTINUOUS
 62
    16
  5
8E5
 10
-6160.295011
 20
-4048.985794
 30
0.0
 70
     8
  0
VERTEX
  8
1
  6
CONTINUOUS
 62
    16
  5
8E6
 10
-6160.295858
 20
-4048.98607
 30
0.0
 70
     8
  0
VERTEX
  8
1
  6
CONTINUOUS
 62
    16
  5
8E7
 10
-6160.296687
 20
-4048.986333
 30
0.0
 70
     8
  0
VERTEX
  8
1
  6
CONTINUOUS
 62
    16
  5
8E8
 10
-6160.297504
 20
-4048.986584
 30
0.0
 70
     8
  0
VERTEX
  8
1
  6
CONTINUOUS
 62
    16
  5
8E9
 10
-6160.29831
 20
-4048.986827
 30
0.0
 70
     8
  0
VERTEX
  8
1
  6
CONTINUOUS
 62
    16
  5
8EA
 10
-6160.29911
 20
-4048.987064
 30
0.0
 70
     8
  0
VERTEX
  8
1
  6
CONTINUOUS
 62
    16
  5
8EB
 10
-6160.299907
 20
-4048.987298
 30
0.0
 70
     8
  0
VERTEX
  8
1
  6
CONTINUOUS
 62
    16
  5
8EC
 10
-6160.265765
 20
-4048.967692
 30
0.0
 70
    16
  0
VERTEX
  8
1
  6
CONTINUOUS
 62
    16
  5
8ED
 10
-6160.269805
 20
-4048.971379
 30
0.0
 70
    16
  0
VERTEX
  8
1
  6
CONTINUOUS
 62
    16
  5
8EE
 10
-6160.2807
 20
-4048.979827
 30
0.0
 70
    16
  0
VERTEX
  8
1
  6
CONTINUOUS
 62
    16
  5
8EF
 10
-6160.291945
 20
-4048.984958
 30
0.0
 70
    16
  0
VERTEX
  8
1
  6
CONTINUOUS
 62
    16
  5
8F0
 10
-6160.299907
 20
-4048.987298
 30
0.0
 70
    16
  0
SEQEND
  8
1
  6
CONTINUOUS
 62
    16
  5
8F1
  0
POLYLINE
  8
1
  6
CONTINUOUS
 62
    16
  5
8F2
 66
     1
 10
0.0
 20
0.0
 30
0.0
 70
     4
 75
     6
  0
VERTEX
  8
1
  6
CONTINUOUS
 62
    16
  5
8F3
 10
-6155.560749
 20
-4050.075131
 30
0.0
 70
    16
  0
VERTEX
  8
1
  6
CONTINUOUS
 62
    16
  5
8F4
 10
-6155.560749
 20
-4050.075131
 30
0.0
 70
     8
  0
VERTEX
  8
1
  6
CONTINUOUS
 62
    16
  5
8F5
 10
-6155.561175
 20
-4050.075031
 30
0.0
 70
     8
  0
VERTEX
  8
1
  6
CONTINUOUS
 62
    16
  5
8F6
 10
-6155.561602
 20
-4050.074932
 30
0.0
 70
     8
  0
VERTEX
  8
1
  6
CONTINUOUS
 62
    16
  5
8F7
 10
-6155.562029
 20
-4050.074833
 30
0.0
 70
     8
  0
VERTEX
  8
1
  6
CONTINUOUS
 62
    16
  5
8F8
 10
-6155.562455
 20
-4050.074734
 30
0.0
 70
     8
  0
VERTEX
  8
1
  6
CONTINUOUS
 62
    16
  5
8F9
 10
-6155.562882
 20
-4050.074635
 30
0.0
 70
     8
  0
VERTEX
  8
1
  6
CONTINUOUS
 62
    16
  5
8FA
 10
-6155.563308
 20
-4050.074535
 30
0.0
 70
     8
  0
VERTEX
  8
1
  6
CONTINUOUS
 62
    16
  5
8FB
 10
-6155.563735
 20
-4050.074436
 30
0.0
 70
     8
  0
VERTEX
  8
1
  6
CONTINUOUS
 62
    16
  5
8FC
 10
-6155.564161
 20
-4050.074337
 30
0.0
 70
     8
  0
VERTEX
  8
1
  6
CONTINUOUS
 62
    16
  5
8FD
 10
-6155.564588
 20
-4050.074238
 30
0.0
 70
     8
  0
VERTEX
  8
1
  6
CONTINUOUS
 62
    16
  5
8FE
 10
-6155.565015
 20
-4050.074139
 30
0.0
 70
     8
  0
VERTEX
  8
1
  6
CONTINUOUS
 62
    16
  5
8FF
 10
-6155.565441
 20
-4050.074039
 30
0.0
 70
     8
  0
VERTEX
  8
1
  6
CONTINUOUS
 62
    16
  5
900
 10
-6155.565868
 20
-4050.07394
 30
0.0
 70
     8
  0
VERTEX
  8
1
  6
CONTINUOUS
 62
    16
  5
901
 10
-6155.566295
 20
-4050.073841
 30
0.0
 70
     8
  0
VERTEX
  8
1
  6
CONTINUOUS
 62
    16
  5
902
 10
-6155.566721
 20
-4050.073742
 30
0.0
 70
     8
  0
VERTEX
  8
1
  6
CONTINUOUS
 62
    16
  5
903
 10
-6155.567148
 20
-4050.073643
 30
0.0
 70
     8
  0
VERTEX
  8
1
  6
CONTINUOUS
 62
    16
  5
904
 10
-6155.567575
 20
-4050.073544
 30
0.0
 70
     8
  0
VERTEX
  8
1
  6
CONTINUOUS
 62
    16
  5
905
 10
-6155.568001
 20
-4050.073445
 30
0.0
 70
     8
  0
VERTEX
  8
1
  6
CONTINUOUS
 62
    16
  5
906
 10
-6155.568428
 20
-4050.073346
 30
0.0
 70
     8
  0
VERTEX
  8
1
  6
CONTINUOUS
 62
    16
  5
907
 10
-6155.568855
 20
-4050.073247
 30
0.0
 70
     8
  0
VERTEX
  8
1
  6
CONTINUOUS
 62
    16
  5
908
 10
-6155.569281
 20
-4050.073149
 30
0.0
 70
     8
  0
VERTEX
  8
1
  6
CONTINUOUS
 62
    16
  5
909
 10
-6155.569708
 20
-4050.07305
 30
0.0
 70
     8
  0
VERTEX
  8
1
  6
CONTINUOUS
 62
    16
  5
90A
 10
-6155.570135
 20
-4050.072951
 30
0.0
 70
     8
  0
VERTEX
  8
1
  6
CONTINUOUS
 62
    16
  5
90B
 10
-6155.570562
 20
-4050.072852
 30
0.0
 70
     8
  0
VERTEX
  8
1
  6
CONTINUOUS
 62
    16
  5
90C
 10
-6155.570989
 20
-4050.072753
 30
0.0
 70
     8
  0
VERTEX
  8
1
  6
CONTINUOUS
 62
    16
  5
90D
 10
-6155.571415
 20
-4050.072654
 30
0.0
 70
     8
  0
VERTEX
  8
1
  6
CONTINUOUS
 62
    16
  5
90E
 10
-6155.571842
 20
-4050.072556
 30
0.0
 70
     8
  0
VERTEX
  8
1
  6
CONTINUOUS
 62
    16
  5
90F
 10
-6155.572269
 20
-4050.072457
 30
0.0
 70
     8
  0
VERTEX
  8
1
  6
CONTINUOUS
 62
    16
  5
910
 10
-6155.572696
 20
-4050.072358
 30
0.0
 70
     8
  0
VERTEX
  8
1
  6
CONTINUOUS
 62
    16
  5
911
 10
-6155.573123
 20
-4050.072259
 30
0.0
 70
     8
  0
VERTEX
  8
1
  6
CONTINUOUS
 62
    16
  5
912
 10
-6155.573549
 20
-4050.072161
 30
0.0
 70
     8
  0
VERTEX
  8
1
  6
CONTINUOUS
 62
    16
  5
913
 10
-6155.565014
 20
-4050.074138
 30
0.0
 70
    16
  0
VERTEX
  8
1
  6
CONTINUOUS
 62
    16
  5
914
 10
-6155.569281
 20
-4050.073148
 30
0.0
 70
    16
  0
VERTEX
  8
1
  6
CONTINUOUS
 62
    16
  5
915
 10
-6155.573549
 20
-4050.072161
 30
0.0
 70
    16
  0
SEQEND
  8
1
  6
CONTINUOUS
 62
    16
  5
916
  0
POLYLINE
  8
1
  6
CONTINUOUS
 62
    16
  5
917
 66
     1
 10
0.0
 20
0.0
 30
0.0
 70
     4
 75
     6
  0
VERTEX
  8
1
  6
CONTINUOUS
 62
    16
  5
918
 10
-6152.828817
 20
-4051.154477
 30
0.0
 70
    16
  0
VERTEX
  8
1
  6
CONTINUOUS
 62
    16
  5
919
 10
-6152.828817
 20
-4051.154477
 30
0.0
 70
     8
  0
VERTEX
  8
1
  6
CONTINUOUS
 62
    16
  5
91A
 10
-6152.831337
 20
-4051.158847
 30
0.0
 70
     8
  0
VERTEX
  8
1
  6
CONTINUOUS
 62
    16
  5
91B
 10
-6152.83387
 20
-4051.16327
 30
0.0
 70
     8
  0
VERTEX
  8
1
  6
CONTINUOUS
 62
    16
  5
91C
 10
-6152.836427
 20
-4051.167797
 30
0.0
 70
     8
  0
VERTEX
  8
1
  6
CONTINUOUS
 62
    16
  5
91D
 10
-6152.839021
 20
-4051.172482
 30
0.0
 70
     8
  0
VERTEX
  8
1
  6
CONTINUOUS
 62
    16
  5
91E
 10
-6152.841665
 20
-4051.177377
 30
0.0
 70
     8
  0
VERTEX
  8
1
  6
CONTINUOUS
 62
    16
  5
91F
 10
-6152.84437
 20
-4051.182534
 30
0.0
 70
     8
  0
VERTEX
  8
1
  6
CONTINUOUS
 62
    16
  5
920
 10
-6152.847149
 20
-4051.188005
 30
0.0
 70
     8
  0
VERTEX
  8
1
  6
CONTINUOUS
 62
    16
  5
921
 10
-6152.850015
 20
-4051.193844
 30
0.0
 70
     8
  0
VERTEX
  8
1
  6
CONTINUOUS
 62
    16
  5
922
 10
-6152.852979
 20
-4051.200103
 30
0.0
 70
     8
  0
VERTEX
  8
1
  6
CONTINUOUS
 62
    16
  5
923
 10
-6152.856055
 20
-4051.206834
 30
0.0
 70
     8
  0
VERTEX
  8
1
  6
CONTINUOUS
 62
    16
  5
924
 10
-6152.859245
 20
-4051.214082
 30
0.0
 70
     8
  0
VERTEX
  8
1
  6
CONTINUOUS
 62
    16
  5
925
 10
-6152.862519
 20
-4051.221859
 30
0.0
 70
     8
  0
VERTEX
  8
1
  6
CONTINUOUS
 62
    16
  5
926
 10
-6152.865837
 20
-4051.230169
 30
0.0
 70
     8
  0
VERTEX
  8
1
  6
CONTINUOUS
 62
    16
  5
927
 10
-6152.86916
 20
-4051.239019
 30
0.0
 70
     8
  0
VERTEX
  8
1
  6
CONTINUOUS
 62
    16
  5
928
 10
-6152.872447
 20
-4051.248412
 30
0.0
 70
     8
  0
VERTEX
  8
1
  6
CONTINUOUS
 62
    16
  5
929
 10
-6152.87566
 20
-4051.258352
 30
0.0
 70
     8
  0
VERTEX
  8
1
  6
CONTINUOUS
 62
    16
  5
92A
 10
-6152.878758
 20
-4051.268846
 30
0.0
 70
     8
  0
VERTEX
  8
1
  6
CONTINUOUS
 62
    16
  5
92B
 10
-6152.881702
 20
-4051.279896
 30
0.0
 70
     8
  0
VERTEX
  8
1
  6
CONTINUOUS
 62
    16
  5
92C
 10
-6152.884453
 20
-4051.291509
 30
0.0
 70
     8
  0
VERTEX
  8
1
  6
CONTINUOUS
 62
    16
  5
92D
 10
-6152.886969
 20
-4051.303687
 30
0.0
 70
     8
  0
VERTEX
  8
1
  6
CONTINUOUS
 62
    16
  5
92E
 10
-6152.889217
 20
-4051.316427
 30
0.0
 70
     8
  0
VERTEX
  8
1
  6
CONTINUOUS
 62
    16
  5
92F
 10
-6152.891172
 20
-4051.329677
 30
0.0
 70
     8
  0
VERTEX
  8
1
  6
CONTINUOUS
 62
    16
  5
930
 10
-6152.892815
 20
-4051.343377
 30
0.0
 70
     8
  0
VERTEX
  8
1
  6
CONTINUOUS
 62
    16
  5
931
 10
-6152.894129
 20
-4051.357467
 30
0.0
 70
     8
  0
VERTEX
  8
1
  6
CONTINUOUS
 62
    16
  5
932
 10
-6152.895093
 20
-4051.371886
 30
0.0
 70
     8
  0
VERTEX
  8
1
  6
CONTINUOUS
 62
    16
  5
933
 10
-6152.895688
 20
-4051.386574
 30
0.0
 70
     8
  0
VERTEX
  8
1
  6
CONTINUOUS
 62
    16
  5
934
 10
-6152.895896
 20
-4051.401471
 30
0.0
 70
     8
  0
VERTEX
  8
1
  6
CONTINUOUS
 62
    16
  5
935
 10
-6152.895697
 20
-4051.416515
 30
0.0
 70
     8
  0
VERTEX
  8
1
  6
CONTINUOUS
 62
    16
  5
936
 10
-6152.895072
 20
-4051.431646
 30
0.0
 70
     8
  0
VERTEX
  8
1
  6
CONTINUOUS
 62
    16
  5
937
 10
-6152.894002
 20
-4051.446804
 30
0.0
 70
     8
  0
VERTEX
  8
1
  6
CONTINUOUS
 62
    16
  5
938
 10
-6152.892471
 20
-4051.461936
 30
0.0
 70
     8
  0
VERTEX
  8
1
  6
CONTINUOUS
 62
    16
  5
939
 10
-6152.89048
 20
-4051.477019
 30
0.0
 70
     8
  0
VERTEX
  8
1
  6
CONTINUOUS
 62
    16
  5
93A
 10
-6152.888033
 20
-4051.49204
 30
0.0
 70
     8
  0
VERTEX
  8
1
  6
CONTINUOUS
 62
    16
  5
93B
 10
-6152.885132
 20
-4051.506981
 30
0.0
 70
     8
  0
VERTEX
  8
1
  6
CONTINUOUS
 62
    16
  5
93C
 10
-6152.881781
 20
-4051.52183
 30
0.0
 70
     8
  0
VERTEX
  8
1
  6
CONTINUOUS
 62
    16
  5
93D
 10
-6152.877984
 20
-4051.536571
 30
0.0
 70
     8
  0
VERTEX
  8
1
  6
CONTINUOUS
 62
    16
  5
93E
 10
-6152.873745
 20
-4051.55119
 30
0.0
 70
     8
  0
VERTEX
  8
1
  6
CONTINUOUS
 62
    16
  5
93F
 10
-6152.869066
 20
-4051.565671
 30
0.0
 70
     8
  0
VERTEX
  8
1
  6
CONTINUOUS
 62
    16
  5
940
 10
-6152.863952
 20
-4051.58
 30
0.0
 70
     8
  0
VERTEX
  8
1
  6
CONTINUOUS
 62
    16
  5
941
 10
-6152.858407
 20
-4051.594162
 30
0.0
 70
     8
  0
VERTEX
  8
1
  6
CONTINUOUS
 62
    16
  5
942
 10
-6152.85244
 20
-4051.608137
 30
0.0
 70
     8
  0
VERTEX
  8
1
  6
CONTINUOUS
 62
    16
  5
943
 10
-6152.84609
 20
-4051.621885
 30
0.0
 70
     8
  0
VERTEX
  8
1
  6
CONTINUOUS
 62
    16
  5
944
 10
-6152.8394
 20
-4051.63536
 30
0.0
 70
     8
  0
VERTEX
  8
1
  6
CONTINUOUS
 62
    16
  5
945
 10
-6152.832416
 20
-4051.648519
 30
0.0
 70
     8
  0
VERTEX
  8
1
  6
CONTINUOUS
 62
    16
  5
946
 10
-6152.825182
 20
-4051.661315
 30
0.0
 70
     8
  0
VERTEX
  8
1
  6
CONTINUOUS
 62
    16
  5
947
 10
-6152.817743
 20
-4051.673704
 30
0.0
 70
     8
  0
VERTEX
  8
1
  6
CONTINUOUS
 62
    16
  5
948
 10
-6152.810143
 20
-4051.68564
 30
0.0
 70
     8
  0
VERTEX
  8
1
  6
CONTINUOUS
 62
    16
  5
949
 10
-6152.802427
 20
-4051.697079
 30
0.0
 70
     8
  0
VERTEX
  8
1
  6
CONTINUOUS
 62
    16
  5
94A
 10
-6152.79464
 20
-4051.707975
 30
0.0
 70
     8
  0
VERTEX
  8
1
  6
CONTINUOUS
 62
    16
  5
94B
 10
-6152.786825
 20
-4051.718282
 30
0.0
 70
     8
  0
VERTEX
  8
1
  6
CONTINUOUS
 62
    16
  5
94C
 10
-6152.779026
 20
-4051.727968
 30
0.0
 70
     8
  0
VERTEX
  8
1
  6
CONTINUOUS
 62
    16
  5
94D
 10
-6152.771278
 20
-4051.737043
 30
0.0
 70
     8
  0
VERTEX
  8
1
  6
CONTINUOUS
 62
    16
  5
94E
 10
-6152.763614
 20
-4051.74553
 30
0.0
 70
     8
  0
VERTEX
  8
1
  6
CONTINUOUS
 62
    16
  5
94F
 10
-6152.756067
 20
-4051.75345
 30
0.0
 70
     8
  0
VERTEX
  8
1
  6
CONTINUOUS
 62
    16
  5
950
 10
-6152.74867
 20
-4051.760827
 30
0.0
 70
     8
  0
VERTEX
  8
1
  6
CONTINUOUS
 62
    16
  5
951
 10
-6152.741457
 20
-4051.767682
 30
0.0
 70
     8
  0
VERTEX
  8
1
  6
CONTINUOUS
 62
    16
  5
952
 10
-6152.73446
 20
-4051.774038
 30
0.0
 70
     8
  0
VERTEX
  8
1
  6
CONTINUOUS
 62
    16
  5
953
 10
-6152.727713
 20
-4051.779916
 30
0.0
 70
     8
  0
VERTEX
  8
1
  6
CONTINUOUS
 62
    16
  5
954
 10
-6152.721249
 20
-4051.78534
 30
0.0
 70
     8
  0
VERTEX
  8
1
  6
CONTINUOUS
 62
    16
  5
955
 10
-6152.715102
 20
-4051.790331
 30
0.0
 70
     8
  0
VERTEX
  8
1
  6
CONTINUOUS
 62
    16
  5
956
 10
-6152.709292
 20
-4051.794915
 30
0.0
 70
     8
  0
VERTEX
  8
1
  6
CONTINUOUS
 62
    16
  5
957
 10
-6152.703796
 20
-4051.79913
 30
0.0
 70
     8
  0
VERTEX
  8
1
  6
CONTINUOUS
 62
    16
  5
958
 10
-6152.69858
 20
-4051.803017
 30
0.0
 70
     8
  0
VERTEX
  8
1
  6
CONTINUOUS
 62
    16
  5
959
 10
-6152.693608
 20
-4051.806617
 30
0.0
 70
     8
  0
VERTEX
  8
1
  6
CONTINUOUS
 62
    16
  5
95A
 10
-6152.688846
 20
-4051.80997
 30
0.0
 70
     8
  0
VERTEX
  8
1
  6
CONTINUOUS
 62
    16
  5
95B
 10
-6152.684258
 20
-4051.813119
 30
0.0
 70
     8
  0
VERTEX
  8
1
  6
CONTINUOUS
 62
    16
  5
95C
 10
-6152.679811
 20
-4051.816103
 30
0.0
 70
     8
  0
VERTEX
  8
1
  6
CONTINUOUS
 62
    16
  5
95D
 10
-6152.675467
 20
-4051.818965
 30
0.0
 70
     8
  0
VERTEX
  8
1
  6
CONTINUOUS
 62
    16
  5
95E
 10
-6152.671194
 20
-4051.821744
 30
0.0
 70
     8
  0
VERTEX
  8
1
  6
CONTINUOUS
 62
    16
  5
95F
 10
-6152.666956
 20
-4051.824482
 30
0.0
 70
     8
  0
VERTEX
  8
1
  6
CONTINUOUS
 62
    16
  5
960
 10
-6152.853997
 20
-4051.19809
 30
0.0
 70
    16
  0
VERTEX
  8
1
  6
CONTINUOUS
 62
    16
  5
961
 10
-6152.891521
 20
-4051.294167
 30
0.0
 70
    16
  0
VERTEX
  8
1
  6
CONTINUOUS
 62
    16
  5
962
 10
-6152.901736
 20
-4051.447366
 30
0.0
 70
    16
  0
VERTEX
  8
1
  6
CONTINUOUS
 62
    16
  5
963
 10
-6152.865543
 20
-4051.597193
 30
0.0
 70
    16
  0
VERTEX
  8
1
  6
CONTINUOUS
 62
    16
  5
964
 10
-6152.786532
 20
-4051.728833
 30
0.0
 70
    16
  0
VERTEX
  8
1
  6
CONTINUOUS
 62
    16
  5
965
 10
-6152.70928
 20
-4051.797168
 30
0.0
 70
    16
  0
VERTEX
  8
1
  6
CONTINUOUS
 62
    16
  5
966
 10
-6152.666956
 20
-4051.824482
 30
0.0
 70
    16
  0
SEQEND
  8
1
  6
CONTINUOUS
 62
    16
  5
967
  0
POLYLINE
  8
1
  6
CONTINUOUS
 62
    16
  5
968
 66
     1
 10
0.0
 20
0.0
 30
0.0
 70
     4
 75
     6
  0
VERTEX
  8
1
  6
CONTINUOUS
 62
    16
  5
969
 10
-6162.916399
 20
-4051.154411
 30
0.0
 70
    16
  0
VERTEX
  8
1
  6
CONTINUOUS
 62
    16
  5
96A
 10
-6162.916399
 20
-4051.154411
 30
0.0
 70
     8
  0
VERTEX
  8
1
  6
CONTINUOUS
 62
    16
  5
96B
 10
-6162.913879
 20
-4051.158782
 30
0.0
 70
     8
  0
VERTEX
  8
1
  6
CONTINUOUS
 62
    16
  5
96C
 10
-6162.911345
 20
-4051.163206
 30
0.0
 70
     8
  0
VERTEX
  8
1
  6
CONTINUOUS
 62
    16
  5
96D
 10
-6162.908788
 20
-4051.167734
 30
0.0
 70
     8
  0
VERTEX
  8
1
  6
CONTINUOUS
 62
    16
  5
96E
 10
-6162.906193
 20
-4051.17242
 30
0.0
 70
     8
  0
VERTEX
  8
1
  6
CONTINUOUS
 62
    16
  5
96F
 10
-6162.903549
 20
-4051.177316
 30
0.0
 70
     8
  0
VERTEX
  8
1
  6
CONTINUOUS
 62
    16
  5
970
 10
-6162.900842
 20
-4051.182473
 30
0.0
 70
     8
  0
VERTEX
  8
1
  6
CONTINUOUS
 62
    16
  5
971
 10
-6162.898062
 20
-4051.187946
 30
0.0
 70
     8
  0
VERTEX
  8
1
  6
CONTINUOUS
 62
    16
  5
972
 10
-6162.895196
 20
-4051.193785
 30
0.0
 70
     8
  0
VERTEX
  8
1
  6
CONTINUOUS
 62
    16
  5
973
 10
-6162.89223
 20
-4051.200044
 30
0.0
 70
     8
  0
VERTEX
  8
1
  6
CONTINUOUS
 62
    16
  5
974
 10
-6162.889153
 20
-4051.206775
 30
0.0
 70
     8
  0
VERTEX
  8
1
  6
CONTINUOUS
 62
    16
  5
975
 10
-6162.885962
 20
-4051.214023
 30
0.0
 70
     8
  0
VERTEX
  8
1
  6
CONTINUOUS
 62
    16
  5
976
 10
-6162.882686
 20
-4051.221799
 30
0.0
 70
     8
  0
VERTEX
  8
1
  6
CONTINUOUS
 62
    16
  5
977
 10
-6162.879366
 20
-4051.23011
 30
0.0
 70
     8
  0
VERTEX
  8
1
  6
CONTINUOUS
 62
    16
  5
978
 10
-6162.876042
 20
-4051.238958
 30
0.0
 70
     8
  0
VERTEX
  8
1
  6
CONTINUOUS
 62
    16
  5
979
 10
-6162.872753
 20
-4051.24835
 30
0.0
 70
     8
  0
VERTEX
  8
1
  6
CONTINUOUS
 62
    16
  5
97A
 10
-6162.869538
 20
-4051.25829
 30
0.0
 70
     8
  0
VERTEX
  8
1
  6
CONTINUOUS
 62
    16
  5
97B
 10
-6162.866438
 20
-4051.268783
 30
0.0
 70
     8
  0
VERTEX
  8
1
  6
CONTINUOUS
 62
    16
  5
97C
 10
-6162.863493
 20
-4051.279832
 30
0.0
 70
     8
  0
VERTEX
  8
1
  6
CONTINUOUS
 62
    16
  5
97D
 10
-6162.86074
 20
-4051.291444
 30
0.0
 70
     8
  0
VERTEX
  8
1
  6
CONTINUOUS
 62
    16
  5
97E
 10
-6162.858222
 20
-4051.303622
 30
0.0
 70
     8
  0
VERTEX
  8
1
  6
CONTINUOUS
 62
    16
  5
97F
 10
-6162.855973
 20
-4051.31636
 30
0.0
 70
     8
  0
VERTEX
  8
1
  6
CONTINUOUS
 62
    16
  5
980
 10
-6162.854016
 20
-4051.329609
 30
0.0
 70
     8
  0
VERTEX
  8
1
  6
CONTINUOUS
 62
    16
  5
981
 10
-6162.852371
 20
-4051.343309
 30
0.0
 70
     8
  0
VERTEX
  8
1
  6
CONTINUOUS
 62
    16
  5
982
 10
-6162.851056
 20
-4051.357398
 30
0.0
 70
     8
  0
VERTEX
  8
1
  6
CONTINUOUS
 62
    16
  5
983
 10
-6162.85009
 20
-4051.371817
 30
0.0
 70
     8
  0
VERTEX
  8
1
  6
CONTINUOUS
 62
    16
  5
984
 10
-6162.849493
 20
-4051.386504
 30
0.0
 70
     8
  0
VERTEX
  8
1
  6
CONTINUOUS
 62
    16
  5
985
 10
-6162.849284
 20
-4051.4014
 30
0.0
 70
     8
  0
VERTEX
  8
1
  6
CONTINUOUS
 62
    16
  5
986
 10
-6162.849481
 20
-4051.416444
 30
0.0
 70
     8
  0
VERTEX
  8
1
  6
CONTINUOUS
 62
    16
  5
987
 10
-6162.850104
 20
-4051.431575
 30
0.0
 70
     8
  0
VERTEX
  8
1
  6
CONTINUOUS
 62
    16
  5
988
 10
-6162.851172
 20
-4051.446733
 30
0.0
 70
     8
  0
VERTEX
  8
1
  6
CONTINUOUS
 62
    16
  5
989
 10
-6162.8527
 20
-4051.461865
 30
0.0
 70
     8
  0
VERTEX
  8
1
  6
CONTINUOUS
 62
    16
  5
98A
 10
-6162.854689
 20
-4051.476949
 30
0.0
 70
     8
  0
VERTEX
  8
1
  6
CONTINUOUS
 62
    16
  5
98B
 10
-6162.857134
 20
-4051.491969
 30
0.0
 70
     8
  0
VERTEX
  8
1
  6
CONTINUOUS
 62
    16
  5
98C
 10
-6162.860032
 20
-4051.506912
 30
0.0
 70
     8
  0
VERTEX
  8
1
  6
CONTINUOUS
 62
    16
  5
98D
 10
-6162.863381
 20
-4051.521761
 30
0.0
 70
     8
  0
VERTEX
  8
1
  6
CONTINUOUS
 62
    16
  5
98E
 10
-6162.867175
 20
-4051.536503
 30
0.0
 70
     8
  0
VERTEX
  8
1
  6
CONTINUOUS
 62
    16
  5
98F
 10
-6162.871412
 20
-4051.551122
 30
0.0
 70
     8
  0
VERTEX
  8
1
  6
CONTINUOUS
 62
    16
  5
990
 10
-6162.876088
 20
-4051.565603
 30
0.0
 70
     8
  0
VERTEX
  8
1
  6
CONTINUOUS
 62
    16
  5
991
 10
-6162.881199
 20
-4051.579932
 30
0.0
 70
     8
  0
VERTEX
  8
1
  6
CONTINUOUS
 62
    16
  5
992
 10
-6162.886742
 20
-4051.594094
 30
0.0
 70
     8
  0
VERTEX
  8
1
  6
CONTINUOUS
 62
    16
  5
993
 10
-6162.892706
 20
-4051.608069
 30
0.0
 70
     8
  0
VERTEX
  8
1
  6
CONTINUOUS
 62
    16
  5
994
 10
-6162.899055
 20
-4051.621817
 30
0.0
 70
     8
  0
VERTEX
  8
1
  6
CONTINUOUS
 62
    16
  5
995
 10
-6162.905742
 20
-4051.635292
 30
0.0
 70
     8
  0
VERTEX
  8
1
  6
CONTINUOUS
 62
    16
  5
996
 10
-6162.912724
 20
-4051.64845
 30
0.0
 70
     8
  0
VERTEX
  8
1
  6
CONTINUOUS
 62
    16
  5
997
 10
-6162.919955
 20
-4051.661246
 30
0.0
 70
     8
  0
VERTEX
  8
1
  6
CONTINUOUS
 62
    16
  5
998
 10
-6162.927392
 20
-4051.673635
 30
0.0
 70
     8
  0
VERTEX
  8
1
  6
CONTINUOUS
 62
    16
  5
999
 10
-6162.93499
 20
-4051.685571
 30
0.0
 70
     8
  0
VERTEX
  8
1
  6
CONTINUOUS
 62
    16
  5
99A
 10
-6162.942703
 20
-4051.697009
 30
0.0
 70
     8
  0
VERTEX
  8
1
  6
CONTINUOUS
 62
    16
  5
99B
 10
-6162.950488
 20
-4051.707905
 30
0.0
 70
     8
  0
VERTEX
  8
1
  6
CONTINUOUS
 62
    16
  5
99C
 10
-6162.9583
 20
-4051.718213
 30
0.0
 70
     8
  0
VERTEX
  8
1
  6
CONTINUOUS
 62
    16
  5
99D
 10
-6162.966096
 20
-4051.7279
 30
0.0
 70
     8
  0
VERTEX
  8
1
  6
CONTINUOUS
 62
    16
  5
99E
 10
-6162.973842
 20
-4051.736976
 30
0.0
 70
     8
  0
VERTEX
  8
1
  6
CONTINUOUS
 62
    16
  5
99F
 10
-6162.981503
 20
-4051.745464
 30
0.0
 70
     8
  0
VERTEX
  8
1
  6
CONTINUOUS
 62
    16
  5
9A0
 10
-6162.989047
 20
-4051.753385
 30
0.0
 70
     8
  0
VERTEX
  8
1
  6
CONTINUOUS
 62
    16
  5
9A1
 10
-6162.99644
 20
-4051.760763
 30
0.0
 70
     8
  0
VERTEX
  8
1
  6
CONTINUOUS
 62
    16
  5
9A2
 10
-6163.00365
 20
-4051.767619
 30
0.0
 70
     8
  0
VERTEX
  8
1
  6
CONTINUOUS
 62
    16
  5
9A3
 10
-6163.010644
 20
-4051.773975
 30
0.0
 70
     8
  0
VERTEX
  8
1
  6
CONTINUOUS
 62
    16
  5
9A4
 10
-6163.017387
 20
-4051.779854
 30
0.0
 70
     8
  0
VERTEX
  8
1
  6
CONTINUOUS
 62
    16
  5
9A5
 10
-6163.023848
 20
-4051.785279
 30
0.0
 70
     8
  0
VERTEX
  8
1
  6
CONTINUOUS
 62
    16
  5
9A6
 10
-6163.029993
 20
-4051.79027
 30
0.0
 70
     8
  0
VERTEX
  8
1
  6
CONTINUOUS
 62
    16
  5
9A7
 10
-6163.0358
 20
-4051.794854
 30
0.0
 70
     8
  0
VERTEX
  8
1
  6
CONTINUOUS
 62
    16
  5
9A8
 10
-6163.041292
 20
-4051.799069
 30
0.0
 70
     8
  0
VERTEX
  8
1
  6
CONTINUOUS
 62
    16
  5
9A9
 10
-6163.046506
 20
-4051.802955
 30
0.0
 70
     8
  0
VERTEX
  8
1
  6
CONTINUOUS
 62
    16
  5
9AA
 10
-6163.051475
 20
-4051.806554
 30
0.0
 70
     8
  0
VERTEX
  8
1
  6
CONTINUOUS
 62
    16
  5
9AB
 10
-6163.056234
 20
-4051.809906
 30
0.0
 70
     8
  0
VERTEX
  8
1
  6
CONTINUOUS
 62
    16
  5
9AC
 10
-6163.060819
 20
-4051.813053
 30
0.0
 70
     8
  0
VERTEX
  8
1
  6
CONTINUOUS
 62
    16
  5
9AD
 10
-6163.065264
 20
-4051.816036
 30
0.0
 70
     8
  0
VERTEX
  8
1
  6
CONTINUOUS
 62
    16
  5
9AE
 10
-6163.069604
 20
-4051.818896
 30
0.0
 70
     8
  0
VERTEX
  8
1
  6
CONTINUOUS
 62
    16
  5
9AF
 10
-6163.073874
 20
-4051.821673
 30
0.0
 70
     8
  0
VERTEX
  8
1
  6
CONTINUOUS
 62
    16
  5
9B0
 10
-6163.07811
 20
-4051.82441
 30
0.0
 70
     8
  0
VERTEX
  8
1
  6
CONTINUOUS
 62
    16
  5
9B1
 10
-6162.891213
 20
-4051.198035
 30
0.0
 70
    16
  0
VERTEX
  8
1
  6
CONTINUOUS
 62
    16
  5
9B2
 10
-6162.85367
 20
-4051.2941
 30
0.0
 70
    16
  0
VERTEX
  8
1
  6
CONTINUOUS
 62
    16
  5
9B3
 10
-6162.84344
 20
-4051.447293
 30
0.0
 70
    16
  0
VERTEX
  8
1
  6
CONTINUOUS
 62
    16
  5
9B4
 10
-6162.879604
 20
-4051.597128
 30
0.0
 70
    16
  0
VERTEX
  8
1
  6
CONTINUOUS
 62
    16
  5
9B5
 10
-6162.958596
 20
-4051.72876
 30
0.0
 70
    16
  0
VERTEX
  8
1
  6
CONTINUOUS
 62
    16
  5
9B6
 10
-6163.035813
 20
-4051.797113
 30
0.0
 70
    16
  0
VERTEX
  8
1
  6
CONTINUOUS
 62
    16
  5
9B7
 10
-6163.07811
 20
-4051.82441
 30
0.0
 70
    16
  0
SEQEND
  8
1
  6
CONTINUOUS
 62
    16
  5
9B8
  0
POLYLINE
  8
1
  6
CONTINUOUS
 62
    16
  5
9B9
 66
     1
 10
0.0
 20
0.0
 30
0.0
 70
     4
 75
     6
  0
VERTEX
  8
1
  6
CONTINUOUS
 62
    16
  5
9BA
 10
-6152.228121
 20
-4050.114041
 30
0.0
 70
    16
  0
VERTEX
  8
1
  6
CONTINUOUS
 62
    16
  5
9BB
 10
-6152.228121
 20
-4050.114041
 30
0.0
 70
     8
  0
VERTEX
  8
1
  6
CONTINUOUS
 62
    16
  5
9BC
 10
-6152.226438
 20
-4050.111128
 30
0.0
 70
     8
  0
VERTEX
  8
1
  6
CONTINUOUS
 62
    16
  5
9BD
 10
-6152.224733
 20
-4050.10819
 30
0.0
 70
     8
  0
VERTEX
  8
1
  6
CONTINUOUS
 62
    16
  5
9BE
 10
-6152.222981
 20
-4050.105199
 30
0.0
 70
     8
  0
VERTEX
  8
1
  6
CONTINUOUS
 62
    16
  5
9BF
 10
-6152.221162
 20
-4050.102132
 30
0.0
 70
     8
  0
VERTEX
  8
1
  6
CONTINUOUS
 62
    16
  5
9C0
 10
-6152.219251
 20
-4050.09896
 30
0.0
 70
     8
  0
VERTEX
  8
1
  6
CONTINUOUS
 62
    16
  5
9C1
 10
-6152.217226
 20
-4050.09566
 30
0.0
 70
     8
  0
VERTEX
  8
1
  6
CONTINUOUS
 62
    16
  5
9C2
 10
-6152.215065
 20
-4050.092204
 30
0.0
 70
     8
  0
VERTEX
  8
1
  6
CONTINUOUS
 62
    16
  5
9C3
 10
-6152.212744
 20
-4050.088568
 30
0.0
 70
     8
  0
VERTEX
  8
1
  6
CONTINUOUS
 62
    16
  5
9C4
 10
-6152.210241
 20
-4050.084725
 30
0.0
 70
     8
  0
VERTEX
  8
1
  6
CONTINUOUS
 62
    16
  5
9C5
 10
-6152.207533
 20
-4050.080649
 30
0.0
 70
     8
  0
VERTEX
  8
1
  6
CONTINUOUS
 62
    16
  5
9C6
 10
-6152.204598
 20
-4050.07632
 30
0.0
 70
     8
  0
VERTEX
  8
1
  6
CONTINUOUS
 62
    16
  5
9C7
 10
-6152.201424
 20
-4050.071746
 30
0.0
 70
     8
  0
VERTEX
  8
1
  6
CONTINUOUS
 62
    16
  5
9C8
 10
-6152.197998
 20
-4050.066937
 30
0.0
 70
     8
  0
VERTEX
  8
1
  6
CONTINUOUS
 62
    16
  5
9C9
 10
-6152.194307
 20
-4050.061906
 30
0.0
 70
     8
  0
VERTEX
  8
1
  6
CONTINUOUS
 62
    16
  5
9CA
 10
-6152.190339
 20
-4050.056664
 30
0.0
 70
     8
  0
VERTEX
  8
1
  6
CONTINUOUS
 62
    16
  5
9CB
 10
-6152.186082
 20
-4050.051224
 30
0.0
 70
     8
  0
VERTEX
  8
1
  6
CONTINUOUS
 62
    16
  5
9CC
 10
-6152.181525
 20
-4050.045599
 30
0.0
 70
     8
  0
VERTEX
  8
1
  6
CONTINUOUS
 62
    16
  5
9CD
 10
-6152.176654
 20
-4050.039799
 30
0.0
 70
     8
  0
VERTEX
  8
1
  6
CONTINUOUS
 62
    16
  5
9CE
 10
-6152.171457
 20
-4050.033837
 30
0.0
 70
     8
  0
VERTEX
  8
1
  6
CONTINUOUS
 62
    16
  5
9CF
 10
-6152.165923
 20
-4050.027725
 30
0.0
 70
     8
  0
VERTEX
  8
1
  6
CONTINUOUS
 62
    16
  5
9D0
 10
-6152.160045
 20
-4050.021479
 30
0.0
 70
     8
  0
VERTEX
  8
1
  6
CONTINUOUS
 62
    16
  5
9D1
 10
-6152.15384
 20
-4050.015125
 30
0.0
 70
     8
  0
VERTEX
  8
1
  6
CONTINUOUS
 62
    16
  5
9D2
 10
-6152.14733
 20
-4050.008693
 30
0.0
 70
     8
  0
VERTEX
  8
1
  6
CONTINUOUS
 62
    16
  5
9D3
 10
-6152.140538
 20
-4050.002213
 30
0.0
 70
     8
  0
VERTEX
  8
1
  6
CONTINUOUS
 62
    16
  5
9D4
 10
-6152.133487
 20
-4049.995716
 30
0.0
 70
     8
  0
VERTEX
  8
1
  6
CONTINUOUS
 62
    16
  5
9D5
 10
-6152.1262
 20
-4049.989232
 30
0.0
 70
     8
  0
VERTEX
  8
1
  6
CONTINUOUS
 62
    16
  5
9D6
 10
-6152.118699
 20
-4049.982791
 30
0.0
 70
     8
  0
VERTEX
  8
1
  6
CONTINUOUS
 62
    16
  5
9D7
 10
-6152.111007
 20
-4049.976422
 30
0.0
 70
     8
  0
VERTEX
  8
1
  6
CONTINUOUS
 62
    16
  5
9D8
 10
-6152.103147
 20
-4049.970156
 30
0.0
 70
     8
  0
VERTEX
  8
1
  6
CONTINUOUS
 62
    16
  5
9D9
 10
-6152.095141
 20
-4049.964023
 30
0.0
 70
     8
  0
VERTEX
  8
1
  6
CONTINUOUS
 62
    16
  5
9DA
 10
-6152.087009
 20
-4049.958048
 30
0.0
 70
     8
  0
VERTEX
  8
1
  6
CONTINUOUS
 62
    16
  5
9DB
 10
-6152.078758
 20
-4049.952239
 30
0.0
 70
     8
  0
VERTEX
  8
1
  6
CONTINUOUS
 62
    16
  5
9DC
 10
-6152.070391
 20
-4049.946597
 30
0.0
 70
     8
  0
VERTEX
  8
1
  6
CONTINUOUS
 62
    16
  5
9DD
 10
-6152.061912
 20
-4049.941125
 30
0.0
 70
     8
  0
VERTEX
  8
1
  6
CONTINUOUS
 62
    16
  5
9DE
 10
-6152.053324
 20
-4049.935825
 30
0.0
 70
     8
  0
VERTEX
  8
1
  6
CONTINUOUS
 62
    16
  5
9DF
 10
-6152.044631
 20
-4049.930698
 30
0.0
 70
     8
  0
VERTEX
  8
1
  6
CONTINUOUS
 62
    16
  5
9E0
 10
-6152.035837
 20
-4049.925748
 30
0.0
 70
     8
  0
VERTEX
  8
1
  6
CONTINUOUS
 62
    16
  5
9E1
 10
-6152.026944
 20
-4049.920976
 30
0.0
 70
     8
  0
VERTEX
  8
1
  6
CONTINUOUS
 62
    16
  5
9E2
 10
-6152.017957
 20
-4049.916385
 30
0.0
 70
     8
  0
VERTEX
  8
1
  6
CONTINUOUS
 62
    16
  5
9E3
 10
-6152.008879
 20
-4049.911976
 30
0.0
 70
     8
  0
VERTEX
  8
1
  6
CONTINUOUS
 62
    16
  5
9E4
 10
-6151.999714
 20
-4049.907752
 30
0.0
 70
     8
  0
VERTEX
  8
1
  6
CONTINUOUS
 62
    16
  5
9E5
 10
-6151.990465
 20
-4049.903714
 30
0.0
 70
     8
  0
VERTEX
  8
1
  6
CONTINUOUS
 62
    16
  5
9E6
 10
-6151.981136
 20
-4049.899864
 30
0.0
 70
     8
  0
VERTEX
  8
1
  6
CONTINUOUS
 62
    16
  5
9E7
 10
-6151.971732
 20
-4049.896203
 30
0.0
 70
     8
  0
VERTEX
  8
1
  6
CONTINUOUS
 62
    16
  5
9E8
 10
-6151.962256
 20
-4049.892732
 30
0.0
 70
     8
  0
VERTEX
  8
1
  6
CONTINUOUS
 62
    16
  5
9E9
 10
-6151.952712
 20
-4049.889453
 30
0.0
 70
     8
  0
VERTEX
  8
1
  6
CONTINUOUS
 62
    16
  5
9EA
 10
-6151.943104
 20
-4049.886367
 30
0.0
 70
     8
  0
VERTEX
  8
1
  6
CONTINUOUS
 62
    16
  5
9EB
 10
-6151.933435
 20
-4049.883476
 30
0.0
 70
     8
  0
VERTEX
  8
1
  6
CONTINUOUS
 62
    16
  5
9EC
 10
-6151.92371
 20
-4049.88078
 30
0.0
 70
     8
  0
VERTEX
  8
1
  6
CONTINUOUS
 62
    16
  5
9ED
 10
-6151.913933
 20
-4049.878282
 30
0.0
 70
     8
  0
VERTEX
  8
1
  6
CONTINUOUS
 62
    16
  5
9EE
 10
-6151.904107
 20
-4049.875982
 30
0.0
 70
     8
  0
VERTEX
  8
1
  6
CONTINUOUS
 62
    16
  5
9EF
 10
-6151.894236
 20
-4049.873882
 30
0.0
 70
     8
  0
VERTEX
  8
1
  6
CONTINUOUS
 62
    16
  5
9F0
 10
-6151.884325
 20
-4049.871981
 30
0.0
 70
     8
  0
VERTEX
  8
1
  6
CONTINUOUS
 62
    16
  5
9F1
 10
-6151.874378
 20
-4049.87028
 30
0.0
 70
     8
  0
VERTEX
  8
1
  6
CONTINUOUS
 62
    16
  5
9F2
 10
-6151.864398
 20
-4049.868781
 30
0.0
 70
     8
  0
VERTEX
  8
1
  6
CONTINUOUS
 62
    16
  5
9F3
 10
-6151.85439
 20
-4049.867483
 30
0.0
 70
     8
  0
VERTEX
  8
1
  6
CONTINUOUS
 62
    16
  5
9F4
 10
-6151.844358
 20
-4049.866387
 30
0.0
 70
     8
  0
VERTEX
  8
1
  6
CONTINUOUS
 62
    16
  5
9F5
 10
-6151.834306
 20
-4049.865493
 30
0.0
 70
     8
  0
VERTEX
  8
1
  6
CONTINUOUS
 62
    16
  5
9F6
 10
-6151.824237
 20
-4049.864804
 30
0.0
 70
     8
  0
VERTEX
  8
1
  6
CONTINUOUS
 62
    16
  5
9F7
 10
-6151.814157
 20
-4049.864318
 30
0.0
 70
     8
  0
VERTEX
  8
1
  6
CONTINUOUS
 62
    16
  5
9F8
 10
-6151.804069
 20
-4049.864036
 30
0.0
 70
     8
  0
VERTEX
  8
1
  6
CONTINUOUS
 62
    16
  5
9F9
 10
-6151.793977
 20
-4049.863958
 30
0.0
 70
     8
  0
VERTEX
  8
1
  6
CONTINUOUS
 62
    16
  5
9FA
 10
-6151.783886
 20
-4049.864085
 30
0.0
 70
     8
  0
VERTEX
  8
1
  6
CONTINUOUS
 62
    16
  5
9FB
 10
-6151.773799
 20
-4049.864415
 30
0.0
 70
     8
  0
VERTEX
  8
1
  6
CONTINUOUS
 62
    16
  5
9FC
 10
-6151.763721
 20
-4049.864948
 30
0.0
 70
     8
  0
VERTEX
  8
1
  6
CONTINUOUS
 62
    16
  5
9FD
 10
-6151.753656
 20
-4049.865684
 30
0.0
 70
     8
  0
VERTEX
  8
1
  6
CONTINUOUS
 62
    16
  5
9FE
 10
-6151.743608
 20
-4049.866623
 30
0.0
 70
     8
  0
VERTEX
  8
1
  6
CONTINUOUS
 62
    16
  5
9FF
 10
-6151.733581
 20
-4049.867765
 30
0.0
 70
     8
  0
VERTEX
  8
1
  6
CONTINUOUS
 62
    16
  5
A00
 10
-6151.72358
 20
-4049.869108
 30
0.0
 70
     8
  0
VERTEX
  8
1
  6
CONTINUOUS
 62
    16
  5
A01
 10
-6151.713608
 20
-4049.870654
 30
0.0
 70
     8
  0
VERTEX
  8
1
  6
CONTINUOUS
 62
    16
  5
A02
 10
-6151.703675
 20
-4049.872398
 30
0.0
 70
     8
  0
VERTEX
  8
1
  6
CONTINUOUS
 62
    16
  5
A03
 10
-6151.69381
 20
-4049.874328
 30
0.0
 70
     8
  0
VERTEX
  8
1
  6
CONTINUOUS
 62
    16
  5
A04
 10
-6151.684046
 20
-4049.876427
 30
0.0
 70
     8
  0
VERTEX
  8
1
  6
CONTINUOUS
 62
    16
  5
A05
 10
-6151.674419
 20
-4049.878679
 30
0.0
 70
     8
  0
VERTEX
  8
1
  6
CONTINUOUS
 62
    16
  5
A06
 10
-6151.664961
 20
-4049.881067
 30
0.0
 70
     8
  0
VERTEX
  8
1
  6
CONTINUOUS
 62
    16
  5
A07
 10
-6151.655707
 20
-4049.883577
 30
0.0
 70
     8
  0
VERTEX
  8
1
  6
CONTINUOUS
 62
    16
  5
A08
 10
-6151.646692
 20
-4049.88619
 30
0.0
 70
     8
  0
VERTEX
  8
1
  6
CONTINUOUS
 62
    16
  5
A09
 10
-6151.637948
 20
-4049.888891
 30
0.0
 70
     8
  0
VERTEX
  8
1
  6
CONTINUOUS
 62
    16
  5
A0A
 10
-6151.62951
 20
-4049.891665
 30
0.0
 70
     8
  0
VERTEX
  8
1
  6
CONTINUOUS
 62
    16
  5
A0B
 10
-6151.621412
 20
-4049.894493
 30
0.0
 70
     8
  0
VERTEX
  8
1
  6
CONTINUOUS
 62
    16
  5
A0C
 10
-6151.613682
 20
-4049.897362
 30
0.0
 70
     8
  0
VERTEX
  8
1
  6
CONTINUOUS
 62
    16
  5
A0D
 10
-6151.606321
 20
-4049.900253
 30
0.0
 70
     8
  0
VERTEX
  8
1
  6
CONTINUOUS
 62
    16
  5
A0E
 10
-6151.599324
 20
-4049.903151
 30
0.0
 70
     8
  0
VERTEX
  8
1
  6
CONTINUOUS
 62
    16
  5
A0F
 10
-6151.592684
 20
-4049.906039
 30
0.0
 70
     8
  0
VERTEX
  8
1
  6
CONTINUOUS
 62
    16
  5
A10
 10
-6151.586398
 20
-4049.908902
 30
0.0
 70
     8
  0
VERTEX
  8
1
  6
CONTINUOUS
 62
    16
  5
A11
 10
-6151.58046
 20
-4049.911721
 30
0.0
 70
     8
  0
VERTEX
  8
1
  6
CONTINUOUS
 62
    16
  5
A12
 10
-6151.574864
 20
-4049.914482
 30
0.0
 70
     8
  0
VERTEX
  8
1
  6
CONTINUOUS
 62
    16
  5
A13
 10
-6151.569605
 20
-4049.917168
 30
0.0
 70
     8
  0
VERTEX
  8
1
  6
CONTINUOUS
 62
    16
  5
A14
 10
-6151.564678
 20
-4049.919763
 30
0.0
 70
     8
  0
VERTEX
  8
1
  6
CONTINUOUS
 62
    16
  5
A15
 10
-6151.560078
 20
-4049.922249
 30
0.0
 70
     8
  0
VERTEX
  8
1
  6
CONTINUOUS
 62
    16
  5
A16
 10
-6151.555795
 20
-4049.924617
 30
0.0
 70
     8
  0
VERTEX
  8
1
  6
CONTINUOUS
 62
    16
  5
A17
 10
-6151.551801
 20
-4049.926872
 30
0.0
 70
     8
  0
VERTEX
  8
1
  6
CONTINUOUS
 62
    16
  5
A18
 10
-6151.548065
 20
-4049.929028
 30
0.0
 70
     8
  0
VERTEX
  8
1
  6
CONTINUOUS
 62
    16
  5
A19
 10
-6151.544553
 20
-4049.931097
 30
0.0
 70
     8
  0
VERTEX
  8
1
  6
CONTINUOUS
 62
    16
  5
A1A
 10
-6151.541234
 20
-4049.933092
 30
0.0
 70
     8
  0
VERTEX
  8
1
  6
CONTINUOUS
 62
    16
  5
A1B
 10
-6151.538076
 20
-4049.935024
 30
0.0
 70
     8
  0
VERTEX
  8
1
  6
CONTINUOUS
 62
    16
  5
A1C
 10
-6151.535047
 20
-4049.936907
 30
0.0
 70
     8
  0
VERTEX
  8
1
  6
CONTINUOUS
 62
    16
  5
A1D
 10
-6151.532114
 20
-4049.938752
 30
0.0
 70
     8
  0
VERTEX
  8
1
  6
CONTINUOUS
 62
    16
  5
A1E
 10
-6151.529245
 20
-4049.940573
 30
0.0
 70
     8
  0
VERTEX
  8
1
  6
CONTINUOUS
 62
    16
  5
A1F
 10
-6151.526408
 20
-4049.942381
 30
0.0
 70
     8
  0
VERTEX
  8
1
  6
CONTINUOUS
 62
    16
  5
A20
 10
-6152.21133
 20
-4050.084957
 30
0.0
 70
    16
  0
VERTEX
  8
1
  6
CONTINUOUS
 62
    16
  5
A21
 10
-6152.171755
 20
-4050.030023
 30
0.0
 70
    16
  0
VERTEX
  8
1
  6
CONTINUOUS
 62
    16
  5
A22
 10
-6152.097189
 20
-4049.961305
 30
0.0
 70
    16
  0
VERTEX
  8
1
  6
CONTINUOUS
 62
    16
  5
A23
 10
-6152.010336
 20
-4049.908894
 30
0.0
 70
    16
  0
VERTEX
  8
1
  6
CONTINUOUS
 62
    16
  5
A24
 10
-6151.914743
 20
-4049.874972
 30
0.0
 70
    16
  0
VERTEX
  8
1
  6
CONTINUOUS
 62
    16
  5
A25
 10
-6151.814289
 20
-4049.86091
 30
0.0
 70
    16
  0
VERTEX
  8
1
  6
CONTINUOUS
 62
    16
  5
A26
 10
-6151.713046
 20
-4049.867294
 30
0.0
 70
    16
  0
VERTEX
  8
1
  6
CONTINUOUS
 62
    16
  5
A27
 10
-6151.615177
 20
-4049.893837
 30
0.0
 70
    16
  0
VERTEX
  8
1
  6
CONTINUOUS
 62
    16
  5
A28
 10
-6151.554721
 20
-4049.92432
 30
0.0
 70
    16
  0
VERTEX
  8
1
  6
CONTINUOUS
 62
    16
  5
A29
 10
-6151.526408
 20
-4049.942381
 30
0.0
 70
    16
  0
SEQEND
  8
1
  6
CONTINUOUS
 62
    16
  5
A2A
  0
CIRCLE
  8
1
  6
CONTINUOUS
 62
    16
  5
A2B
 10
-6167.372589
 20
-4047.890546
 30
0.0
 40
2.75
  0
LINE
  8
1
  6
CONTINUOUS
 62
    16
  5
A2C
 10
-6160.872589
 20
-4048.775131
 30
0.0
 11
-6154.872589
 21
-4048.775131
 31
0.0
  0
POLYLINE
  8
1
  6
CONTINUOUS
 62
    16
  5
A2D
 66
     1
 10
0.0
 20
0.0
 30
0.0
 70
     4
 75
     6
  0
VERTEX
  8
1
  6
CONTINUOUS
 62
    16
  5
A2E
 10
-6160.184433
 20
-4050.075131
 30
0.0
 70
    16
  0
VERTEX
  8
1
  6
CONTINUOUS
 62
    16
  5
A2F
 10
-6160.184433
 20
-4050.075131
 30
0.0
 70
     8
  0
VERTEX
  8
1
  6
CONTINUOUS
 62
    16
  5
A30
 10
-6160.184478
 20
-4050.074662
 30
0.0
 70
     8
  0
VERTEX
  8
1
  6
CONTINUOUS
 62
    16
  5
A31
 10
-6160.184524
 20
-4050.074178
 30
0.0
 70
     8
  0
VERTEX
  8
1
  6
CONTINUOUS
 62
    16
  5
A32
 10
-6160.184573
 20
-4050.073668
 30
0.0
 70
     8
  0
VERTEX
  8
1
  6
CONTINUOUS
 62
    16
  5
A33
 10
-6160.184626
 20
-4050.073116
 30
0.0
 70
     8
  0
VERTEX
  8
1
  6
CONTINUOUS
 62
    16
  5
A34
 10
-6160.184684
 20
-4050.07251
 30
0.0
 70
     8
  0
VERTEX
  8
1
  6
CONTINUOUS
 62
    16
  5
A35
 10
-6160.184748
 20
-4050.071836
 30
0.0
 70
     8
  0
VERTEX
  8
1
  6
CONTINUOUS
 62
    16
  5
A36
 10
-6160.184821
 20
-4050.07108
 30
0.0
 70
     8
  0
VERTEX
  8
1
  6
CONTINUOUS
 62
    16
  5
A37
 10
-6160.184902
 20
-4050.070229
 30
0.0
 70
     8
  0
VERTEX
  8
1
  6
CONTINUOUS
 62
    16
  5
A38
 10
-6160.184993
 20
-4050.069269
 30
0.0
 70
     8
  0
VERTEX
  8
1
  6
CONTINUOUS
 62
    16
  5
A39
 10
-6160.185096
 20
-4050.068186
 30
0.0
 70
     8
  0
VERTEX
  8
1
  6
CONTINUOUS
 62
    16
  5
A3A
 10
-6160.185212
 20
-4050.066968
 30
0.0
 70
     8
  0
VERTEX
  8
1
  6
CONTINUOUS
 62
    16
  5
A3B
 10
-6160.185342
 20
-4050.065604
 30
0.0
 70
     8
  0
VERTEX
  8
1
  6
CONTINUOUS
 62
    16
  5
A3C
 10
-6160.185486
 20
-4050.064088
 30
0.0
 70
     8
  0
VERTEX
  8
1
  6
CONTINUOUS
 62
    16
  5
A3D
 10
-6160.185645
 20
-4050.06241
 30
0.0
 70
     8
  0
VERTEX
  8
1
  6
CONTINUOUS
 62
    16
  5
A3E
 10
-6160.185819
 20
-4050.060561
 30
0.0
 70
     8
  0
VERTEX
  8
1
  6
CONTINUOUS
 62
    16
  5
A3F
 10
-6160.18601
 20
-4050.058533
 30
0.0
 70
     8
  0
VERTEX
  8
1
  6
CONTINUOUS
 62
    16
  5
A40
 10
-6160.186218
 20
-4050.056318
 30
0.0
 70
     8
  0
VERTEX
  8
1
  6
CONTINUOUS
 62
    16
  5
A41
 10
-6160.186443
 20
-4050.053908
 30
0.0
 70
     8
  0
VERTEX
  8
1
  6
CONTINUOUS
 62
    16
  5
A42
 10
-6160.186687
 20
-4050.051292
 30
0.0
 70
     8
  0
VERTEX
  8
1
  6
CONTINUOUS
 62
    16
  5
A43
 10
-6160.18695
 20
-4050.048464
 30
0.0
 70
     8
  0
VERTEX
  8
1
  6
CONTINUOUS
 62
    16
  5
A44
 10
-6160.187233
 20
-4050.045415
 30
0.0
 70
     8
  0
VERTEX
  8
1
  6
CONTINUOUS
 62
    16
  5
A45
 10
-6160.187535
 20
-4050.042141
 30
0.0
 70
     8
  0
VERTEX
  8
1
  6
CONTINUOUS
 62
    16
  5
A46
 10
-6160.187858
 20
-4050.038639
 30
0.0
 70
     8
  0
VERTEX
  8
1
  6
CONTINUOUS
 62
    16
  5
A47
 10
-6160.188202
 20
-4050.034903
 30
0.0
 70
     8
  0
VERTEX
  8
1
  6
CONTINUOUS
 62
    16
  5
A48
 10
-6160.188566
 20
-4050.030932
 30
0.0
 70
     8
  0
VERTEX
  8
1
  6
CONTINUOUS
 62
    16
  5
A49
 10
-6160.188951
 20
-4050.026721
 30
0.0
 70
     8
  0
VERTEX
  8
1
  6
CONTINUOUS
 62
    16
  5
A4A
 10
-6160.189357
 20
-4050.022267
 30
0.0
 70
     8
  0
VERTEX
  8
1
  6
CONTINUOUS
 62
    16
  5
A4B
 10
-6160.189784
 20
-4050.017566
 30
0.0
 70
     8
  0
VERTEX
  8
1
  6
CONTINUOUS
 62
    16
  5
A4C
 10
-6160.190233
 20
-4050.012614
 30
0.0
 70
     8
  0
VERTEX
  8
1
  6
CONTINUOUS
 62
    16
  5
A4D
 10
-6160.190704
 20
-4050.007407
 30
0.0
 70
     8
  0
VERTEX
  8
1
  6
CONTINUOUS
 62
    16
  5
A4E
 10
-6160.191197
 20
-4050.001944
 30
0.0
 70
     8
  0
VERTEX
  8
1
  6
CONTINUOUS
 62
    16
  5
A4F
 10
-6160.191713
 20
-4049.99622
 30
0.0
 70
     8
  0
VERTEX
  8
1
  6
CONTINUOUS
 62
    16
  5
A50
 10
-6160.19225
 20
-4049.990237
 30
0.0
 70
     8
  0
VERTEX
  8
1
  6
CONTINUOUS
 62
    16
  5
A51
 10
-6160.192809
 20
-4049.983991
 30
0.0
 70
     8
  0
VERTEX
  8
1
  6
CONTINUOUS
 62
    16
  5
A52
 10
-6160.19339
 20
-4049.977483
 30
0.0
 70
     8
  0
VERTEX
  8
1
  6
CONTINUOUS
 62
    16
  5
A53
 10
-6160.193993
 20
-4049.97071
 30
0.0
 70
     8
  0
VERTEX
  8
1
  6
CONTINUOUS
 62
    16
  5
A54
 10
-6160.194617
 20
-4049.963671
 30
0.0
 70
     8
  0
VERTEX
  8
1
  6
CONTINUOUS
 62
    16
  5
A55
 10
-6160.195264
 20
-4049.956365
 30
0.0
 70
     8
  0
VERTEX
  8
1
  6
CONTINUOUS
 62
    16
  5
A56
 10
-6160.195932
 20
-4049.948791
 30
0.0
 70
     8
  0
VERTEX
  8
1
  6
CONTINUOUS
 62
    16
  5
A57
 10
-6160.196622
 20
-4049.940947
 30
0.0
 70
     8
  0
VERTEX
  8
1
  6
CONTINUOUS
 62
    16
  5
A58
 10
-6160.197333
 20
-4049.932833
 30
0.0
 70
     8
  0
VERTEX
  8
1
  6
CONTINUOUS
 62
    16
  5
A59
 10
-6160.198066
 20
-4049.924446
 30
0.0
 70
     8
  0
VERTEX
  8
1
  6
CONTINUOUS
 62
    16
  5
A5A
 10
-6160.198821
 20
-4049.915785
 30
0.0
 70
     8
  0
VERTEX
  8
1
  6
CONTINUOUS
 62
    16
  5
A5B
 10
-6160.199597
 20
-4049.906848
 30
0.0
 70
     8
  0
VERTEX
  8
1
  6
CONTINUOUS
 62
    16
  5
A5C
 10
-6160.200394
 20
-4049.897635
 30
0.0
 70
     8
  0
VERTEX
  8
1
  6
CONTINUOUS
 62
    16
  5
A5D
 10
-6160.201213
 20
-4049.888142
 30
0.0
 70
     8
  0
VERTEX
  8
1
  6
CONTINUOUS
 62
    16
  5
A5E
 10
-6160.202053
 20
-4049.878369
 30
0.0
 70
     8
  0
VERTEX
  8
1
  6
CONTINUOUS
 62
    16
  5
A5F
 10
-6160.202914
 20
-4049.868315
 30
0.0
 70
     8
  0
VERTEX
  8
1
  6
CONTINUOUS
 62
    16
  5
A60
 10
-6160.203797
 20
-4049.857977
 30
0.0
 70
     8
  0
VERTEX
  8
1
  6
CONTINUOUS
 62
    16
  5
A61
 10
-6160.204701
 20
-4049.847354
 30
0.0
 70
     8
  0
VERTEX
  8
1
  6
CONTINUOUS
 62
    16
  5
A62
 10
-6160.205626
 20
-4049.836445
 30
0.0
 70
     8
  0
VERTEX
  8
1
  6
CONTINUOUS
 62
    16
  5
A63
 10
-6160.206572
 20
-4049.825248
 30
0.0
 70
     8
  0
VERTEX
  8
1
  6
CONTINUOUS
 62
    16
  5
A64
 10
-6160.207538
 20
-4049.813765
 30
0.0
 70
     8
  0
VERTEX
  8
1
  6
CONTINUOUS
 62
    16
  5
A65
 10
-6160.208525
 20
-4049.801994
 30
0.0
 70
     8
  0
VERTEX
  8
1
  6
CONTINUOUS
 62
    16
  5
A66
 10
-6160.209532
 20
-4049.789935
 30
0.0
 70
     8
  0
VERTEX
  8
1
  6
CONTINUOUS
 62
    16
  5
A67
 10
-6160.210558
 20
-4049.777588
 30
0.0
 70
     8
  0
VERTEX
  8
1
  6
CONTINUOUS
 62
    16
  5
A68
 10
-6160.211604
 20
-4049.764952
 30
0.0
 70
     8
  0
VERTEX
  8
1
  6
CONTINUOUS
 62
    16
  5
A69
 10
-6160.212669
 20
-4049.752028
 30
0.0
 70
     8
  0
VERTEX
  8
1
  6
CONTINUOUS
 62
    16
  5
A6A
 10
-6160.213753
 20
-4049.738814
 30
0.0
 70
     8
  0
VERTEX
  8
1
  6
CONTINUOUS
 62
    16
  5
A6B
 10
-6160.214856
 20
-4049.72531
 30
0.0
 70
     8
  0
VERTEX
  8
1
  6
CONTINUOUS
 62
    16
  5
A6C
 10
-6160.215977
 20
-4049.711517
 30
0.0
 70
     8
  0
VERTEX
  8
1
  6
CONTINUOUS
 62
    16
  5
A6D
 10
-6160.217116
 20
-4049.697435
 30
0.0
 70
     8
  0
VERTEX
  8
1
  6
CONTINUOUS
 62
    16
  5
A6E
 10
-6160.218272
 20
-4049.683065
 30
0.0
 70
     8
  0
VERTEX
  8
1
  6
CONTINUOUS
 62
    16
  5
A6F
 10
-6160.219445
 20
-4049.668408
 30
0.0
 70
     8
  0
VERTEX
  8
1
  6
CONTINUOUS
 62
    16
  5
A70
 10
-6160.220633
 20
-4049.653465
 30
0.0
 70
     8
  0
VERTEX
  8
1
  6
CONTINUOUS
 62
    16
  5
A71
 10
-6160.221838
 20
-4049.638236
 30
0.0
 70
     8
  0
VERTEX
  8
1
  6
CONTINUOUS
 62
    16
  5
A72
 10
-6160.223057
 20
-4049.622723
 30
0.0
 70
     8
  0
VERTEX
  8
1
  6
CONTINUOUS
 62
    16
  5
A73
 10
-6160.224291
 20
-4049.606927
 30
0.0
 70
     8
  0
VERTEX
  8
1
  6
CONTINUOUS
 62
    16
  5
A74
 10
-6160.225538
 20
-4049.590848
 30
0.0
 70
     8
  0
VERTEX
  8
1
  6
CONTINUOUS
 62
    16
  5
A75
 10
-6160.226799
 20
-4049.574487
 30
0.0
 70
     8
  0
VERTEX
  8
1
  6
CONTINUOUS
 62
    16
  5
A76
 10
-6160.228072
 20
-4049.557846
 30
0.0
 70
     8
  0
VERTEX
  8
1
  6
CONTINUOUS
 62
    16
  5
A77
 10
-6160.229357
 20
-4049.540924
 30
0.0
 70
     8
  0
VERTEX
  8
1
  6
CONTINUOUS
 62
    16
  5
A78
 10
-6160.230653
 20
-4049.523722
 30
0.0
 70
     8
  0
VERTEX
  8
1
  6
CONTINUOUS
 62
    16
  5
A79
 10
-6160.231959
 20
-4049.506239
 30
0.0
 70
     8
  0
VERTEX
  8
1
  6
CONTINUOUS
 62
    16
  5
A7A
 10
-6160.233275
 20
-4049.488476
 30
0.0
 70
     8
  0
VERTEX
  8
1
  6
CONTINUOUS
 62
    16
  5
A7B
 10
-6160.234598
 20
-4049.470433
 30
0.0
 70
     8
  0
VERTEX
  8
1
  6
CONTINUOUS
 62
    16
  5
A7C
 10
-6160.235929
 20
-4049.452109
 30
0.0
 70
     8
  0
VERTEX
  8
1
  6
CONTINUOUS
 62
    16
  5
A7D
 10
-6160.237266
 20
-4049.433504
 30
0.0
 70
     8
  0
VERTEX
  8
1
  6
CONTINUOUS
 62
    16
  5
A7E
 10
-6160.238608
 20
-4049.41462
 30
0.0
 70
     8
  0
VERTEX
  8
1
  6
CONTINUOUS
 62
    16
  5
A7F
 10
-6160.239955
 20
-4049.395455
 30
0.0
 70
     8
  0
VERTEX
  8
1
  6
CONTINUOUS
 62
    16
  5
A80
 10
-6160.241306
 20
-4049.376025
 30
0.0
 70
     8
  0
VERTEX
  8
1
  6
CONTINUOUS
 62
    16
  5
A81
 10
-6160.242653
 20
-4049.356402
 30
0.0
 70
     8
  0
VERTEX
  8
1
  6
CONTINUOUS
 62
    16
  5
A82
 10
-6160.243992
 20
-4049.336673
 30
0.0
 70
     8
  0
VERTEX
  8
1
  6
CONTINUOUS
 62
    16
  5
A83
 10
-6160.245315
 20
-4049.316927
 30
0.0
 70
     8
  0
VERTEX
  8
1
  6
CONTINUOUS
 62
    16
  5
A84
 10
-6160.246617
 20
-4049.297249
 30
0.0
 70
     8
  0
VERTEX
  8
1
  6
CONTINUOUS
 62
    16
  5
A85
 10
-6160.247891
 20
-4049.277729
 30
0.0
 70
     8
  0
VERTEX
  8
1
  6
CONTINUOUS
 62
    16
  5
A86
 10
-6160.249132
 20
-4049.258453
 30
0.0
 70
     8
  0
VERTEX
  8
1
  6
CONTINUOUS
 62
    16
  5
A87
 10
-6160.250332
 20
-4049.239508
 30
0.0
 70
     8
  0
VERTEX
  8
1
  6
CONTINUOUS
 62
    16
  5
A88
 10
-6160.251485
 20
-4049.220982
 30
0.0
 70
     8
  0
VERTEX
  8
1
  6
CONTINUOUS
 62
    16
  5
A89
 10
-6160.252585
 20
-4049.202963
 30
0.0
 70
     8
  0
VERTEX
  8
1
  6
CONTINUOUS
 62
    16
  5
A8A
 10
-6160.253627
 20
-4049.185524
 30
0.0
 70
     8
  0
VERTEX
  8
1
  6
CONTINUOUS
 62
    16
  5
A8B
 10
-6160.254612
 20
-4049.168689
 30
0.0
 70
     8
  0
VERTEX
  8
1
  6
CONTINUOUS
 62
    16
  5
A8C
 10
-6160.25554
 20
-4049.152466
 30
0.0
 70
     8
  0
VERTEX
  8
1
  6
CONTINUOUS
 62
    16
  5
A8D
 10
-6160.256413
 20
-4049.136865
 30
0.0
 70
     8
  0
VERTEX
  8
1
  6
CONTINUOUS
 62
    16
  5
A8E
 10
-6160.257233
 20
-4049.121896
 30
0.0
 70
     8
  0
VERTEX
  8
1
  6
CONTINUOUS
 62
    16
  5
A8F
 10
-6160.258001
 20
-4049.107568
 30
0.0
 70
     8
  0
VERTEX
  8
1
  6
CONTINUOUS
 62
    16
  5
A90
 10
-6160.258719
 20
-4049.09389
 30
0.0
 70
     8
  0
VERTEX
  8
1
  6
CONTINUOUS
 62
    16
  5
A91
 10
-6160.259387
 20
-4049.080872
 30
0.0
 70
     8
  0
VERTEX
  8
1
  6
CONTINUOUS
 62
    16
  5
A92
 10
-6160.260008
 20
-4049.068523
 30
0.0
 70
     8
  0
VERTEX
  8
1
  6
CONTINUOUS
 62
    16
  5
A93
 10
-6160.260583
 20
-4049.056853
 30
0.0
 70
     8
  0
VERTEX
  8
1
  6
CONTINUOUS
 62
    16
  5
A94
 10
-6160.261114
 20
-4049.045857
 30
0.0
 70
     8
  0
VERTEX
  8
1
  6
CONTINUOUS
 62
    16
  5
A95
 10
-6160.261604
 20
-4049.035482
 30
0.0
 70
     8
  0
VERTEX
  8
1
  6
CONTINUOUS
 62
    16
  5
A96
 10
-6160.262059
 20
-4049.025656
 30
0.0
 70
     8
  0
VERTEX
  8
1
  6
CONTINUOUS
 62
    16
  5
A97
 10
-6160.262483
 20
-4049.016313
 30
0.0
 70
     8
  0
VERTEX
  8
1
  6
CONTINUOUS
 62
    16
  5
A98
 10
-6160.26288
 20
-4049.007382
 30
0.0
 70
     8
  0
VERTEX
  8
1
  6
CONTINUOUS
 62
    16
  5
A99
 10
-6160.263254
 20
-4048.998795
 30
0.0
 70
     8
  0
VERTEX
  8
1
  6
CONTINUOUS
 62
    16
  5
A9A
 10
-6160.263611
 20
-4048.990484
 30
0.0
 70
     8
  0
VERTEX
  8
1
  6
CONTINUOUS
 62
    16
  5
A9B
 10
-6160.263954
 20
-4048.982378
 30
0.0
 70
     8
  0
VERTEX
  8
1
  6
CONTINUOUS
 62
    16
  5
A9C
 10
-6160.264289
 20
-4048.974411
 30
0.0
 70
     8
  0
VERTEX
  8
1
  6
CONTINUOUS
 62
    16
  5
A9D
 10
-6160.264619
 20
-4048.966512
 30
0.0
 70
     8
  0
VERTEX
  8
1
  6
CONTINUOUS
 62
    16
  5
A9E
 10
-6160.184881
 20
-4050.070457
 30
0.0
 70
    16
  0
VERTEX
  8
1
  6
CONTINUOUS
 62
    16
  5
A9F
 10
-6160.186621
 20
-4050.052155
 30
0.0
 70
    16
  0
VERTEX
  8
1
  6
CONTINUOUS
 62
    16
  5
AA0
 10
-6160.190336
 20
-4050.011707
 30
0.0
 70
    16
  0
VERTEX
  8
1
  6
CONTINUOUS
 62
    16
  5
AA1
 10
-6160.196261
 20
-4049.945462
 30
0.0
 70
    16
  0
VERTEX
  8
1
  6
CONTINUOUS
 62
    16
  5
AA2
 10
-6160.204349
 20
-4049.85213
 30
0.0
 70
    16
  0
VERTEX
  8
1
  6
CONTINUOUS
 62
    16
  5
AA3
 10
-6160.21455
 20
-4049.730142
 30
0.0
 70
    16
  0
VERTEX
  8
1
  6
CONTINUOUS
 62
    16
  5
AA4
 10
-6160.226588
 20
-4049.579164
 30
0.0
 70
    16
  0
VERTEX
  8
1
  6
CONTINUOUS
 62
    16
  5
AA5
 10
-6160.239893
 20
-4049.400125
 30
0.0
 70
    16
  0
VERTEX
  8
1
  6
CONTINUOUS
 62
    16
  5
AA6
 10
-6160.253573
 20
-4049.193067
 30
0.0
 70
    16
  0
VERTEX
  8
1
  6
CONTINUOUS
 62
    16
  5
AA7
 10
-6160.261327
 20
-4049.045384
 30
0.0
 70
    16
  0
VERTEX
  8
1
  6
CONTINUOUS
 62
    16
  5
AA8
 10
-6160.264619
 20
-4048.966512
 30
0.0
 70
    16
  0
SEQEND
  8
1
  6
CONTINUOUS
 62
    16
  5
AA9
  0
LINE
  8
1
  6
CONTINUOUS
 62
    16
  5
AAA
 10
-6155.872589
 20
-4072.190546
 30
0.0
 11
-6167.872589
 21
-4072.190546
 31
0.0
  0
LINE
  8
1
  6
CONTINUOUS
 62
    16
  5
AAB
 10
-6167.872589
 20
-4074.190546
 30
0.0
 11
-6155.872589
 21
-4074.190546
 31
0.0
  0
LINE
  8
1
  6
CONTINUOUS
 62
    16
  5
AAC
 10
-6144.872589
 20
-4071.890546
 30
0.0
 11
-6144.872589
 21
-4047.890546
 31
0.0
  0
LINE
  8
1
  6
CONTINUOUS
 62
    16
  5
AAD
 10
-6151.722589
 20
-4056.530546
 30
0.0
 11
-6151.722589
 21
-4063.690546
 31
0.0
  0
LINE
  8
1
  6
CONTINUOUS
 62
    16
  5
AAE
 10
-6164.022589
 20
-4063.690546
 30
0.0
 11
-6164.022589
 21
-4056.530546
 31
0.0
  0
LINE
  8
1
  6
CONTINUOUS
 62
    16
  5
AAF
 10
-6164.022589
 20
-4056.530546
 30
0.0
 11
-6151.722589
 21
-4056.530546
 31
0.0
  0
CIRCLE
  8
1
  6
CONTINUOUS
 62
    16
  5
AB0
 10
-6157.872589
 20
-4059.890546
 30
0.0
 40
8.1
  0
POLYLINE
  8
1
  6
CONTINUOUS
 62
    16
  5
AB1
 66
     1
 10
0.0
 20
0.0
 30
0.0
 70
     4
 75
     6
  0
VERTEX
  8
1
  6
CONTINUOUS
 62
    16
  5
AB2
 10
-6164.21877
 20
-4049.942381
 30
0.0
 70
    16
  0
VERTEX
  8
1
  6
CONTINUOUS
 62
    16
  5
AB3
 10
-6164.21877
 20
-4049.942381
 30
0.0
 70
     8
  0
VERTEX
  8
1
  6
CONTINUOUS
 62
    16
  5
AB4
 10
-6164.215934
 20
-4049.940573
 30
0.0
 70
     8
  0
VERTEX
  8
1
  6
CONTINUOUS
 62
    16
  5
AB5
 10
-6164.213065
 20
-4049.938752
 30
0.0
 70
     8
  0
VERTEX
  8
1
  6
CONTINUOUS
 62
    16
  5
AB6
 10
-6164.210132
 20
-4049.936907
 30
0.0
 70
     8
  0
VERTEX
  8
1
  6
CONTINUOUS
 62
    16
  5
AB7
 10
-6164.207102
 20
-4049.935024
 30
0.0
 70
     8
  0
VERTEX
  8
1
  6
CONTINUOUS
 62
    16
  5
AB8
 10
-6164.203944
 20
-4049.933092
 30
0.0
 70
     8
  0
VERTEX
  8
1
  6
CONTINUOUS
 62
    16
  5
AB9
 10
-6164.200626
 20
-4049.931097
 30
0.0
 70
     8
  0
VERTEX
  8
1
  6
CONTINUOUS
 62
    16
  5
ABA
 10
-6164.197114
 20
-4049.929028
 30
0.0
 70
     8
  0
VERTEX
  8
1
  6
CONTINUOUS
 62
    16
  5
ABB
 10
-6164.193377
 20
-4049.926872
 30
0.0
 70
     8
  0
VERTEX
  8
1
  6
CONTINUOUS
 62
    16
  5
ABC
 10
-6164.189383
 20
-4049.924617
 30
0.0
 70
     8
  0
VERTEX
  8
1
  6
CONTINUOUS
 62
    16
  5
ABD
 10
-6164.1851
 20
-4049.922249
 30
0.0
 70
     8
  0
VERTEX
  8
1
  6
CONTINUOUS
 62
    16
  5
ABE
 10
-6164.1805
 20
-4049.919763
 30
0.0
 70
     8
  0
VERTEX
  8
1
  6
CONTINUOUS
 62
    16
  5
ABF
 10
-6164.175573
 20
-4049.917168
 30
0.0
 70
     8
  0
VERTEX
  8
1
  6
CONTINUOUS
 62
    16
  5
AC0
 10
-6164.170315
 20
-4049.914482
 30
0.0
 70
     8
  0
VERTEX
  8
1
  6
CONTINUOUS
 62
    16
  5
AC1
 10
-6164.164719
 20
-4049.911721
 30
0.0
 70
     8
  0
VERTEX
  8
1
  6
CONTINUOUS
 62
    16
  5
AC2
 10
-6164.15878
 20
-4049.908901
 30
0.0
 70
     8
  0
VERTEX
  8
1
  6
CONTINUOUS
 62
    16
  5
AC3
 10
-6164.152494
 20
-4049.906039
 30
0.0
 70
     8
  0
VERTEX
  8
1
  6
CONTINUOUS
 62
    16
  5
AC4
 10
-6164.145855
 20
-4049.903151
 30
0.0
 70
     8
  0
VERTEX
  8
1
  6
CONTINUOUS
 62
    16
  5
AC5
 10
-6164.138857
 20
-4049.900253
 30
0.0
 70
     8
  0
VERTEX
  8
1
  6
CONTINUOUS
 62
    16
  5
AC6
 10
-6164.131496
 20
-4049.897361
 30
0.0
 70
     8
  0
VERTEX
  8
1
  6
CONTINUOUS
 62
    16
  5
AC7
 10
-6164.123765
 20
-4049.894493
 30
0.0
 70
     8
  0
VERTEX
  8
1
  6
CONTINUOUS
 62
    16
  5
AC8
 10
-6164.115668
 20
-4049.891664
 30
0.0
 70
     8
  0
VERTEX
  8
1
  6
CONTINUOUS
 62
    16
  5
AC9
 10
-6164.10723
 20
-4049.888891
 30
0.0
 70
     8
  0
VERTEX
  8
1
  6
CONTINUOUS
 62
    16
  5
ACA
 10
-6164.098486
 20
-4049.88619
 30
0.0
 70
     8
  0
VERTEX
  8
1
  6
CONTINUOUS
 62
    16
  5
ACB
 10
-6164.08947
 20
-4049.883576
 30
0.0
 70
     8
  0
VERTEX
  8
1
  6
CONTINUOUS
 62
    16
  5
ACC
 10
-6164.080216
 20
-4049.881067
 30
0.0
 70
     8
  0
VERTEX
  8
1
  6
CONTINUOUS
 62
    16
  5
ACD
 10
-6164.070758
 20
-4049.878679
 30
0.0
 70
     8
  0
VERTEX
  8
1
  6
CONTINUOUS
 62
    16
  5
ACE
 10
-6164.061131
 20
-4049.876427
 30
0.0
 70
     8
  0
VERTEX
  8
1
  6
CONTINUOUS
 62
    16
  5
ACF
 10
-6164.051367
 20
-4049.874328
 30
0.0
 70
     8
  0
VERTEX
  8
1
  6
CONTINUOUS
 62
    16
  5
AD0
 10
-6164.041502
 20
-4049.872398
 30
0.0
 70
     8
  0
VERTEX
  8
1
  6
CONTINUOUS
 62
    16
  5
AD1
 10
-6164.031569
 20
-4049.870654
 30
0.0
 70
     8
  0
VERTEX
  8
1
  6
CONTINUOUS
 62
    16
  5
AD2
 10
-6164.021597
 20
-4049.869108
 30
0.0
 70
     8
  0
VERTEX
  8
1
  6
CONTINUOUS
 62
    16
  5
AD3
 10
-6164.011595
 20
-4049.867764
 30
0.0
 70
     8
  0
VERTEX
  8
1
  6
CONTINUOUS
 62
    16
  5
AD4
 10
-6164.001569
 20
-4049.866623
 30
0.0
 70
     8
  0
VERTEX
  8
1
  6
CONTINUOUS
 62
    16
  5
AD5
 10
-6163.99152
 20
-4049.865684
 30
0.0
 70
     8
  0
VERTEX
  8
1
  6
CONTINUOUS
 62
    16
  5
AD6
 10
-6163.981455
 20
-4049.864948
 30
0.0
 70
     8
  0
VERTEX
  8
1
  6
CONTINUOUS
 62
    16
  5
AD7
 10
-6163.971377
 20
-4049.864414
 30
0.0
 70
     8
  0
VERTEX
  8
1
  6
CONTINUOUS
 62
    16
  5
AD8
 10
-6163.96129
 20
-4049.864085
 30
0.0
 70
     8
  0
VERTEX
  8
1
  6
CONTINUOUS
 62
    16
  5
AD9
 10
-6163.951199
 20
-4049.863958
 30
0.0
 70
     8
  0
VERTEX
  8
1
  6
CONTINUOUS
 62
    16
  5
ADA
 10
-6163.941107
 20
-4049.864036
 30
0.0
 70
     8
  0
VERTEX
  8
1
  6
CONTINUOUS
 62
    16
  5
ADB
 10
-6163.931019
 20
-4049.864318
 30
0.0
 70
     8
  0
VERTEX
  8
1
  6
CONTINUOUS
 62
    16
  5
ADC
 10
-6163.920938
 20
-4049.864804
 30
0.0
 70
     8
  0
VERTEX
  8
1
  6
CONTINUOUS
 62
    16
  5
ADD
 10
-6163.91087
 20
-4049.865494
 30
0.0
 70
     8
  0
VERTEX
  8
1
  6
CONTINUOUS
 62
    16
  5
ADE
 10
-6163.900818
 20
-4049.866387
 30
0.0
 70
     8
  0
VERTEX
  8
1
  6
CONTINUOUS
 62
    16
  5
ADF
 10
-6163.890786
 20
-4049.867483
 30
0.0
 70
     8
  0
VERTEX
  8
1
  6
CONTINUOUS
 62
    16
  5
AE0
 10
-6163.880778
 20
-4049.868781
 30
0.0
 70
     8
  0
VERTEX
  8
1
  6
CONTINUOUS
 62
    16
  5
AE1
 10
-6163.870798
 20
-4049.870281
 30
0.0
 70
     8
  0
VERTEX
  8
1
  6
CONTINUOUS
 62
    16
  5
AE2
 10
-6163.86085
 20
-4049.871981
 30
0.0
 70
     8
  0
VERTEX
  8
1
  6
CONTINUOUS
 62
    16
  5
AE3
 10
-6163.850939
 20
-4049.873882
 30
0.0
 70
     8
  0
VERTEX
  8
1
  6
CONTINUOUS
 62
    16
  5
AE4
 10
-6163.841069
 20
-4049.875983
 30
0.0
 70
     8
  0
VERTEX
  8
1
  6
CONTINUOUS
 62
    16
  5
AE5
 10
-6163.831243
 20
-4049.878283
 30
0.0
 70
     8
  0
VERTEX
  8
1
  6
CONTINUOUS
 62
    16
  5
AE6
 10
-6163.821465
 20
-4049.880781
 30
0.0
 70
     8
  0
VERTEX
  8
1
  6
CONTINUOUS
 62
    16
  5
AE7
 10
-6163.811741
 20
-4049.883477
 30
0.0
 70
     8
  0
VERTEX
  8
1
  6
CONTINUOUS
 62
    16
  5
AE8
 10
-6163.802072
 20
-4049.886368
 30
0.0
 70
     8
  0
VERTEX
  8
1
  6
CONTINUOUS
 62
    16
  5
AE9
 10
-6163.792464
 20
-4049.889454
 30
0.0
 70
     8
  0
VERTEX
  8
1
  6
CONTINUOUS
 62
    16
  5
AEA
 10
-6163.78292
 20
-4049.892733
 30
0.0
 70
     8
  0
VERTEX
  8
1
  6
CONTINUOUS
 62
    16
  5
AEB
 10
-6163.773444
 20
-4049.896204
 30
0.0
 70
     8
  0
VERTEX
  8
1
  6
CONTINUOUS
 62
    16
  5
AEC
 10
-6163.764039
 20
-4049.899865
 30
0.0
 70
     8
  0
VERTEX
  8
1
  6
CONTINUOUS
 62
    16
  5
AED
 10
-6163.754711
 20
-4049.903715
 30
0.0
 70
     8
  0
VERTEX
  8
1
  6
CONTINUOUS
 62
    16
  5
AEE
 10
-6163.745462
 20
-4049.907753
 30
0.0
 70
     8
  0
VERTEX
  8
1
  6
CONTINUOUS
 62
    16
  5
AEF
 10
-6163.736297
 20
-4049.911977
 30
0.0
 70
     8
  0
VERTEX
  8
1
  6
CONTINUOUS
 62
    16
  5
AF0
 10
-6163.727219
 20
-4049.916386
 30
0.0
 70
     8
  0
VERTEX
  8
1
  6
CONTINUOUS
 62
    16
  5
AF1
 10
-6163.718232
 20
-4049.920977
 30
0.0
 70
     8
  0
VERTEX
  8
1
  6
CONTINUOUS
 62
    16
  5
AF2
 10
-6163.70934
 20
-4049.925749
 30
0.0
 70
     8
  0
VERTEX
  8
1
  6
CONTINUOUS
 62
    16
  5
AF3
 10
-6163.700545
 20
-4049.930699
 30
0.0
 70
     8
  0
VERTEX
  8
1
  6
CONTINUOUS
 62
    16
  5
AF4
 10
-6163.691853
 20
-4049.935826
 30
0.0
 70
     8
  0
VERTEX
  8
1
  6
CONTINUOUS
 62
    16
  5
AF5
 10
-6163.683265
 20
-4049.941126
 30
0.0
 70
     8
  0
VERTEX
  8
1
  6
CONTINUOUS
 62
    16
  5
AF6
 10
-6163.674786
 20
-4049.946598
 30
0.0
 70
     8
  0
VERTEX
  8
1
  6
CONTINUOUS
 62
    16
  5
AF7
 10
-6163.666419
 20
-4049.95224
 30
0.0
 70
     8
  0
VERTEX
  8
1
  6
CONTINUOUS
 62
    16
  5
AF8
 10
-6163.658168
 20
-4049.958049
 30
0.0
 70
     8
  0
VERTEX
  8
1
  6
CONTINUOUS
 62
    16
  5
AF9
 10
-6163.650036
 20
-4049.964024
 30
0.0
 70
     8
  0
VERTEX
  8
1
  6
CONTINUOUS
 62
    16
  5
AFA
 10
-6163.642031
 20
-4049.970157
 30
0.0
 70
     8
  0
VERTEX
  8
1
  6
CONTINUOUS
 62
    16
  5
AFB
 10
-6163.63417
 20
-4049.976423
 30
0.0
 70
     8
  0
VERTEX
  8
1
  6
CONTINUOUS
 62
    16
  5
AFC
 10
-6163.626479
 20
-4049.982791
 30
0.0
 70
     8
  0
VERTEX
  8
1
  6
CONTINUOUS
 62
    16
  5
AFD
 10
-6163.618978
 20
-4049.989233
 30
0.0
 70
     8
  0
VERTEX
  8
1
  6
CONTINUOUS
 62
    16
  5
AFE
 10
-6163.611691
 20
-4049.995717
 30
0.0
 70
     8
  0
VERTEX
  8
1
  6
CONTINUOUS
 62
    16
  5
AFF
 10
-6163.60464
 20
-4050.002214
 30
0.0
 70
     8
  0
VERTEX
  8
1
  6
CONTINUOUS
 62
    16
  5
B00
 10
-6163.597848
 20
-4050.008694
 30
0.0
 70
     8
  0
VERTEX
  8
1
  6
CONTINUOUS
 62
    16
  5
B01
 10
-6163.591338
 20
-4050.015125
 30
0.0
 70
     8
  0
VERTEX
  8
1
  6
CONTINUOUS
 62
    16
  5
B02
 10
-6163.585133
 20
-4050.02148
 30
0.0
 70
     8
  0
VERTEX
  8
1
  6
CONTINUOUS
 62
    16
  5
B03
 10
-6163.579255
 20
-4050.027726
 30
0.0
 70
     8
  0
VERTEX
  8
1
  6
CONTINUOUS
 62
    16
  5
B04
 10
-6163.573721
 20
-4050.033838
 30
0.0
 70
     8
  0
VERTEX
  8
1
  6
CONTINUOUS
 62
    16
  5
B05
 10
-6163.568524
 20
-4050.039799
 30
0.0
 70
     8
  0
VERTEX
  8
1
  6
CONTINUOUS
 62
    16
  5
B06
 10
-6163.563653
 20
-4050.045599
 30
0.0
 70
     8
  0
VERTEX
  8
1
  6
CONTINUOUS
 62
    16
  5
B07
 10
-6163.559096
 20
-4050.051225
 30
0.0
 70
     8
  0
VERTEX
  8
1
  6
CONTINUOUS
 62
    16
  5
B08
 10
-6163.554839
 20
-4050.056664
 30
0.0
 70
     8
  0
VERTEX
  8
1
  6
CONTINUOUS
 62
    16
  5
B09
 10
-6163.550872
 20
-4050.061906
 30
0.0
 70
     8
  0
VERTEX
  8
1
  6
CONTINUOUS
 62
    16
  5
B0A
 10
-6163.547181
 20
-4050.066937
 30
0.0
 70
     8
  0
VERTEX
  8
1
  6
CONTINUOUS
 62
    16
  5
B0B
 10
-6163.543754
 20
-4050.071746
 30
0.0
 70
     8
  0
VERTEX
  8
1
  6
CONTINUOUS
 62
    16
  5
B0C
 10
-6163.54058
 20
-4050.076321
 30
0.0
 70
     8
  0
VERTEX
  8
1
  6
CONTINUOUS
 62
    16
  5
B0D
 10
-6163.537646
 20
-4050.080649
 30
0.0
 70
     8
  0
VERTEX
  8
1
  6
CONTINUOUS
 62
    16
  5
B0E
 10
-6163.534938
 20
-4050.084725
 30
0.0
 70
     8
  0
VERTEX
  8
1
  6
CONTINUOUS
 62
    16
  5
B0F
 10
-6163.532434
 20
-4050.088568
 30
0.0
 70
     8
  0
VERTEX
  8
1
  6
CONTINUOUS
 62
    16
  5
B10
 10
-6163.530114
 20
-4050.092204
 30
0.0
 70
     8
  0
VERTEX
  8
1
  6
CONTINUOUS
 62
    16
  5
B11
 10
-6163.527952
 20
-4050.09566
 30
0.0
 70
     8
  0
VERTEX
  8
1
  6
CONTINUOUS
 62
    16
  5
B12
 10
-6163.525928
 20
-4050.09896
 30
0.0
 70
     8
  0
VERTEX
  8
1
  6
CONTINUOUS
 62
    16
  5
B13
 10
-6163.524017
 20
-4050.102132
 30
0.0
 70
     8
  0
VERTEX
  8
1
  6
CONTINUOUS
 62
    16
  5
B14
 10
-6163.522197
 20
-4050.105199
 30
0.0
 70
     8
  0
VERTEX
  8
1
  6
CONTINUOUS
 62
    16
  5
B15
 10
-6163.520446
 20
-4050.10819
 30
0.0
 70
     8
  0
VERTEX
  8
1
  6
CONTINUOUS
 62
    16
  5
B16
 10
-6163.51874
 20
-4050.111128
 30
0.0
 70
     8
  0
VERTEX
  8
1
  6
CONTINUOUS
 62
    16
  5
B17
 10
-6163.517057
 20
-4050.114041
 30
0.0
 70
     8
  0
VERTEX
  8
1
  6
CONTINUOUS
 62
    16
  5
B18
 10
-6164.190458
 20
-4049.92432
 30
0.0
 70
    16
  0
VERTEX
  8
1
  6
CONTINUOUS
 62
    16
  5
B19
 10
-6164.130001
 20
-4049.893836
 30
0.0
 70
    16
  0
VERTEX
  8
1
  6
CONTINUOUS
 62
    16
  5
B1A
 10
-6164.032131
 20
-4049.867294
 30
0.0
 70
    16
  0
VERTEX
  8
1
  6
CONTINUOUS
 62
    16
  5
B1B
 10
-6163.930887
 20
-4049.86091
 30
0.0
 70
    16
  0
VERTEX
  8
1
  6
CONTINUOUS
 62
    16
  5
B1C
 10
-6163.830432
 20
-4049.874973
 30
0.0
 70
    16
  0
VERTEX
  8
1
  6
CONTINUOUS
 62
    16
  5
B1D
 10
-6163.73484
 20
-4049.908896
 30
0.0
 70
    16
  0
VERTEX
  8
1
  6
CONTINUOUS
 62
    16
  5
B1E
 10
-6163.647989
 20
-4049.961306
 30
0.0
 70
    16
  0
VERTEX
  8
1
  6
CONTINUOUS
 62
    16
  5
B1F
 10
-6163.573423
 20
-4050.030023
 30
0.0
 70
    16
  0
VERTEX
  8
1
  6
CONTINUOUS
 62
    16
  5
B20
 10
-6163.533849
 20
-4050.084957
 30
0.0
 70
    16
  0
VERTEX
  8
1
  6
CONTINUOUS
 62
    16
  5
B21
 10
-6163.517057
 20
-4050.114041
 30
0.0
 70
    16
  0
SEQEND
  8
1
  6
CONTINUOUS
 62
    16
  5
B22
  0
LINE
  8
1
  6
CONTINUOUS
 62
    16
  5
B23
 10
-6163.517057
 20
-4050.114041
 30
0.0
 11
-6162.898062
 21
-4051.187946
 31
0.0
  0
LINE
  8
1
  6
CONTINUOUS
 62
    16
  5
B24
 10
-6152.204598
 20
-4050.07632
 30
0.0
 11
-6152.828817
 21
-4051.154477
 31
0.0
  0
ARC
  8
1
  6
CONTINUOUS
 62
    16
  5
B25
 10
-6157.872589
 20
-4060.009686
 30
0.0
 40
10.2
 50
60.334559
 51
75.819514
  0
ARC
  8
1
  6
CONTINUOUS
 62
    16
  5
B26
 10
-6157.872589
 20
-4060.009686
 30
0.0
 40
10.2
 50
104.180486
 51
119.670173
  0
CIRCLE
  8
1
  6
CONTINUOUS
 62
    16
  5
B27
 10
-6148.372589
 20
-4047.890546
 30
0.0
 40
2.5
  0
LINE
  8
1
  6
CONTINUOUS
 62
    16
  5
B28
 10
-6168.857225
 20
-4047.890546
 30
0.0
 11
-6165.887953
 21
-4047.890546
 31
0.0
  0
LINE
  8
1
  6
CONTINUOUS
 62
    16
  5
B29
 10
-6167.372589
 20
-4046.43091
 30
0.0
 11
-6167.372589
 21
-4049.350182
 31
0.0
  0
LINE
  8
1
  6
CONTINUOUS
 62
    16
  5
B2A
 10
-6155.822589
 20
-4066.538655
 30
0.0
 11
-6159.922589
 21
-4066.538655
 31
0.0
  0
LINE
  8
1
  6
CONTINUOUS
 62
    16
  5
B2B
 10
-6154.372589
 20
-4065.290546
 30
0.0
 11
-6155.822589
 21
-4065.290546
 31
0.0
  0
LINE
  8
1
  6
CONTINUOUS
 62
    16
  5
B2C
 10
-6151.722589
 20
-4063.690546
 30
0.0
 11
-6154.372589
 21
-4063.690546
 31
0.0
  0
LINE
  8
1
  6
CONTINUOUS
 62
    16
  5
B2D
 10
-6159.922589
 20
-4066.538655
 30
0.0
 11
-6159.922589
 21
-4065.290546
 31
0.0
  0
LINE
  8
1
  6
CONTINUOUS
 62
    16
  5
B2E
 10
-6155.822589
 20
-4065.290546
 30
0.0
 11
-6155.822589
 21
-4066.538655
 31
0.0
  0
ARC
  8
1
  6
CONTINUOUS
 62
    16
  5
B2F
 10
-6155.872589
 20
-4073.190546
 30
0.0
 40
1.0
 50
270.0
 51
90.0
  0
CIRCLE
  8
1
  6
CONTINUOUS
 62
    16
  5
B30
 10
-6148.372589
 20
-4071.890546
 30
0.0
 40
3.0
  0
ARC
  8
1
  6
CONTINUOUS
 62
    16
  5
B31
 10
-6148.372589
 20
-4071.890546
 30
0.0
 40
3.5
 50
270.0
 51
360.0
  0
POLYLINE
  8
1
  6
CONTINUOUS
 62
    16
  5
B32
 66
     1
 10
0.0
 20
0.0
 30
0.0
 70
     4
 75
     6
  0
VERTEX
  8
1
  6
CONTINUOUS
 62
    16
  5
B33
 10
-6159.722589
 20
-4066.510547
 30
0.0
 70
    16
  0
VERTEX
  8
1
  6
CONTINUOUS
 62
    16
  5
B34
 10
-6159.722589
 20
-4066.510547
 30
0.0
 70
     8
  0
VERTEX
  8
1
  6
CONTINUOUS
 62
    16
  5
B35
 10
-6159.722592
 20
-4066.510988
 30
0.0
 70
     8
  0
VERTEX
  8
1
  6
CONTINUOUS
 62
    16
  5
B36
 10
-6159.722611
 20
-4066.511431
 30
0.0
 70
     8
  0
VERTEX
  8
1
  6
CONTINUOUS
 62
    16
  5
B37
 10
-6159.722664
 20
-4066.511882
 30
0.0
 70
     8
  0
VERTEX
  8
1
  6
CONTINUOUS
 62
    16
  5
B38
 10
-6159.722767
 20
-4066.512343
 30
0.0
 70
     8
  0
VERTEX
  8
1
  6
CONTINUOUS
 62
    16
  5
B39
 10
-6159.722937
 20
-4066.512818
 30
0.0
 70
     8
  0
VERTEX
  8
1
  6
CONTINUOUS
 62
    16
  5
B3A
 10
-6159.72319
 20
-4066.513309
 30
0.0
 70
     8
  0
VERTEX
  8
1
  6
CONTINUOUS
 62
    16
  5
B3B
 10
-6159.723544
 20
-4066.513822
 30
0.0
 70
     8
  0
VERTEX
  8
1
  6
CONTINUOUS
 62
    16
  5
B3C
 10
-6159.724014
 20
-4066.514358
 30
0.0
 70
     8
  0
VERTEX
  8
1
  6
CONTINUOUS
 62
    16
  5
B3D
 10
-6159.724618
 20
-4066.514922
 30
0.0
 70
     8
  0
VERTEX
  8
1
  6
CONTINUOUS
 62
    16
  5
B3E
 10
-6159.725372
 20
-4066.515516
 30
0.0
 70
     8
  0
VERTEX
  8
1
  6
CONTINUOUS
 62
    16
  5
B3F
 10
-6159.726289
 20
-4066.516143
 30
0.0
 70
     8
  0
VERTEX
  8
1
  6
CONTINUOUS
 62
    16
  5
B40
 10
-6159.727365
 20
-4066.516799
 30
0.0
 70
     8
  0
VERTEX
  8
1
  6
CONTINUOUS
 62
    16
  5
B41
 10
-6159.728593
 20
-4066.517477
 30
0.0
 70
     8
  0
VERTEX
  8
1
  6
CONTINUOUS
 62
    16
  5
B42
 10
-6159.729964
 20
-4066.518173
 30
0.0
 70
     8
  0
VERTEX
  8
1
  6
CONTINUOUS
 62
    16
  5
B43
 10
-6159.73147
 20
-4066.518879
 30
0.0
 70
     8
  0
VERTEX
  8
1
  6
CONTINUOUS
 62
    16
  5
B44
 10
-6159.733105
 20
-4066.519591
 30
0.0
 70
     8
  0
VERTEX
  8
1
  6
CONTINUOUS
 62
    16
  5
B45
 10
-6159.734859
 20
-4066.520303
 30
0.0
 70
     8
  0
VERTEX
  8
1
  6
CONTINUOUS
 62
    16
  5
B46
 10
-6159.736726
 20
-4066.521008
 30
0.0
 70
     8
  0
VERTEX
  8
1
  6
CONTINUOUS
 62
    16
  5
B47
 10
-6159.738697
 20
-4066.521701
 30
0.0
 70
     8
  0
VERTEX
  8
1
  6
CONTINUOUS
 62
    16
  5
B48
 10
-6159.740765
 20
-4066.522377
 30
0.0
 70
     8
  0
VERTEX
  8
1
  6
CONTINUOUS
 62
    16
  5
B49
 10
-6159.742924
 20
-4066.523031
 30
0.0
 70
     8
  0
VERTEX
  8
1
  6
CONTINUOUS
 62
    16
  5
B4A
 10
-6159.745182
 20
-4066.523665
 30
0.0
 70
     8
  0
VERTEX
  8
1
  6
CONTINUOUS
 62
    16
  5
B4B
 10
-6159.747549
 20
-4066.52428
 30
0.0
 70
     8
  0
VERTEX
  8
1
  6
CONTINUOUS
 62
    16
  5
B4C
 10
-6159.750034
 20
-4066.524882
 30
0.0
 70
     8
  0
VERTEX
  8
1
  6
CONTINUOUS
 62
    16
  5
B4D
 10
-6159.752649
 20
-4066.525471
 30
0.0
 70
     8
  0
VERTEX
  8
1
  6
CONTINUOUS
 62
    16
  5
B4E
 10
-6159.755402
 20
-4066.526052
 30
0.0
 70
     8
  0
VERTEX
  8
1
  6
CONTINUOUS
 62
    16
  5
B4F
 10
-6159.758304
 20
-4066.526628
 30
0.0
 70
     8
  0
VERTEX
  8
1
  6
CONTINUOUS
 62
    16
  5
B50
 10
-6159.761365
 20
-4066.527201
 30
0.0
 70
     8
  0
VERTEX
  8
1
  6
CONTINUOUS
 62
    16
  5
B51
 10
-6159.764594
 20
-4066.527773
 30
0.0
 70
     8
  0
VERTEX
  8
1
  6
CONTINUOUS
 62
    16
  5
B52
 10
-6159.768003
 20
-4066.52835
 30
0.0
 70
     8
  0
VERTEX
  8
1
  6
CONTINUOUS
 62
    16
  5
B53
 10
-6159.771597
 20
-4066.528931
 30
0.0
 70
     8
  0
VERTEX
  8
1
  6
CONTINUOUS
 62
    16
  5
B54
 10
-6159.77537
 20
-4066.529515
 30
0.0
 70
     8
  0
VERTEX
  8
1
  6
CONTINUOUS
 62
    16
  5
B55
 10
-6159.779313
 20
-4066.530099
 30
0.0
 70
     8
  0
VERTEX
  8
1
  6
CONTINUOUS
 62
    16
  5
B56
 10
-6159.783414
 20
-4066.530679
 30
0.0
 70
     8
  0
VERTEX
  8
1
  6
CONTINUOUS
 62
    16
  5
B57
 10
-6159.787664
 20
-4066.531252
 30
0.0
 70
     8
  0
VERTEX
  8
1
  6
CONTINUOUS
 62
    16
  5
B58
 10
-6159.792053
 20
-4066.531815
 30
0.0
 70
     8
  0
VERTEX
  8
1
  6
CONTINUOUS
 62
    16
  5
B59
 10
-6159.796572
 20
-4066.532364
 30
0.0
 70
     8
  0
VERTEX
  8
1
  6
CONTINUOUS
 62
    16
  5
B5A
 10
-6159.80121
 20
-4066.532897
 30
0.0
 70
     8
  0
VERTEX
  8
1
  6
CONTINUOUS
 62
    16
  5
B5B
 10
-6159.805957
 20
-4066.533409
 30
0.0
 70
     8
  0
VERTEX
  8
1
  6
CONTINUOUS
 62
    16
  5
B5C
 10
-6159.810803
 20
-4066.533898
 30
0.0
 70
     8
  0
VERTEX
  8
1
  6
CONTINUOUS
 62
    16
  5
B5D
 10
-6159.815736
 20
-4066.534361
 30
0.0
 70
     8
  0
VERTEX
  8
1
  6
CONTINUOUS
 62
    16
  5
B5E
 10
-6159.820736
 20
-4066.534797
 30
0.0
 70
     8
  0
VERTEX
  8
1
  6
CONTINUOUS
 62
    16
  5
B5F
 10
-6159.825779
 20
-4066.535207
 30
0.0
 70
     8
  0
VERTEX
  8
1
  6
CONTINUOUS
 62
    16
  5
B60
 10
-6159.830842
 20
-4066.535591
 30
0.0
 70
     8
  0
VERTEX
  8
1
  6
CONTINUOUS
 62
    16
  5
B61
 10
-6159.835903
 20
-4066.535948
 30
0.0
 70
     8
  0
VERTEX
  8
1
  6
CONTINUOUS
 62
    16
  5
B62
 10
-6159.840938
 20
-4066.536279
 30
0.0
 70
     8
  0
VERTEX
  8
1
  6
CONTINUOUS
 62
    16
  5
B63
 10
-6159.845924
 20
-4066.536585
 30
0.0
 70
     8
  0
VERTEX
  8
1
  6
CONTINUOUS
 62
    16
  5
B64
 10
-6159.850838
 20
-4066.536864
 30
0.0
 70
     8
  0
VERTEX
  8
1
  6
CONTINUOUS
 62
    16
  5
B65
 10
-6159.855657
 20
-4066.537118
 30
0.0
 70
     8
  0
VERTEX
  8
1
  6
CONTINUOUS
 62
    16
  5
B66
 10
-6159.860359
 20
-4066.537346
 30
0.0
 70
     8
  0
VERTEX
  8
1
  6
CONTINUOUS
 62
    16
  5
B67
 10
-6159.864923
 20
-4066.53755
 30
0.0
 70
     8
  0
VERTEX
  8
1
  6
CONTINUOUS
 62
    16
  5
B68
 10
-6159.869342
 20
-4066.537729
 30
0.0
 70
     8
  0
VERTEX
  8
1
  6
CONTINUOUS
 62
    16
  5
B69
 10
-6159.87361
 20
-4066.537886
 30
0.0
 70
     8
  0
VERTEX
  8
1
  6
CONTINUOUS
 62
    16
  5
B6A
 10
-6159.877724
 20
-4066.538023
 30
0.0
 70
     8
  0
VERTEX
  8
1
  6
CONTINUOUS
 62
    16
  5
B6B
 10
-6159.881678
 20
-4066.538141
 30
0.0
 70
     8
  0
VERTEX
  8
1
  6
CONTINUOUS
 62
    16
  5
B6C
 10
-6159.885468
 20
-4066.538242
 30
0.0
 70
     8
  0
VERTEX
  8
1
  6
CONTINUOUS
 62
    16
  5
B6D
 10
-6159.889089
 20
-4066.538328
 30
0.0
 70
     8
  0
VERTEX
  8
1
  6
CONTINUOUS
 62
    16
  5
B6E
 10
-6159.892537
 20
-4066.538399
 30
0.0
 70
     8
  0
VERTEX
  8
1
  6
CONTINUOUS
 62
    16
  5
B6F
 10
-6159.895807
 20
-4066.538459
 30
0.0
 70
     8
  0
VERTEX
  8
1
  6
CONTINUOUS
 62
    16
  5
B70
 10
-6159.898894
 20
-4066.538508
 30
0.0
 70
     8
  0
VERTEX
  8
1
  6
CONTINUOUS
 62
    16
  5
B71
 10
-6159.901798
 20
-4066.538548
 30
0.0
 70
     8
  0
VERTEX
  8
1
  6
CONTINUOUS
 62
    16
  5
B72
 10
-6159.904533
 20
-4066.53858
 30
0.0
 70
     8
  0
VERTEX
  8
1
  6
CONTINUOUS
 62
    16
  5
B73
 10
-6159.907118
 20
-4066.538605
 30
0.0
 70
     8
  0
VERTEX
  8
1
  6
CONTINUOUS
 62
    16
  5
B74
 10
-6159.909572
 20
-4066.538623
 30
0.0
 70
     8
  0
VERTEX
  8
1
  6
CONTINUOUS
 62
    16
  5
B75
 10
-6159.911913
 20
-4066.538637
 30
0.0
 70
     8
  0
VERTEX
  8
1
  6
CONTINUOUS
 62
    16
  5
B76
 10
-6159.914161
 20
-4066.538646
 30
0.0
 70
     8
  0
VERTEX
  8
1
  6
CONTINUOUS
 62
    16
  5
B77
 10
-6159.916333
 20
-4066.538651
 30
0.0
 70
     8
  0
VERTEX
  8
1
  6
CONTINUOUS
 62
    16
  5
B78
 10
-6159.91845
 20
-4066.538654
 30
0.0
 70
     8
  0
VERTEX
  8
1
  6
CONTINUOUS
 62
    16
  5
B79
 10
-6159.920529
 20
-4066.538655
 30
0.0
 70
     8
  0
VERTEX
  8
1
  6
CONTINUOUS
 62
    16
  5
B7A
 10
-6159.922589
 20
-4066.538655
 30
0.0
 70
     8
  0
VERTEX
  8
1
  6
CONTINUOUS
 62
    16
  5
B7B
 10
-6159.722589
 20
-4066.514945
 30
0.0
 70
    16
  0
VERTEX
  8
1
  6
CONTINUOUS
 62
    16
  5
B7C
 10
-6159.739286
 20
-4066.522768
 30
0.0
 70
    16
  0
VERTEX
  8
1
  6
CONTINUOUS
 62
    16
  5
B7D
 10
-6159.764854
 20
-4066.528247
 30
0.0
 70
    16
  0
VERTEX
  8
1
  6
CONTINUOUS
 62
    16
  5
B7E
 10
-6159.809314
 20
-4066.534343
 30
0.0
 70
    16
  0
VERTEX
  8
1
  6
CONTINUOUS
 62
    16
  5
B7F
 10
-6159.862706
 20
-4066.53777
 30
0.0
 70
    16
  0
VERTEX
  8
1
  6
CONTINUOUS
 62
    16
  5
B80
 10
-6159.902017
 20
-4066.538655
 30
0.0
 70
    16
  0
VERTEX
  8
1
  6
CONTINUOUS
 62
    16
  5
B81
 10
-6159.922589
 20
-4066.538655
 30
0.0
 70
    16
  0
SEQEND
  8
1
  6
CONTINUOUS
 62
    16
  5
B82
  0
POLYLINE
  8
1
  6
CONTINUOUS
 62
    16
  5
B83
 66
     1
 10
0.0
 20
0.0
 30
0.0
 70
     4
 75
     6
  0
VERTEX
  8
1
  6
CONTINUOUS
 62
    16
  5
B84
 10
-6155.822589
 20
-4066.538655
 30
0.0
 70
    16
  0
VERTEX
  8
1
  6
CONTINUOUS
 62
    16
  5
B85
 10
-6155.822589
 20
-4066.538655
 30
0.0
 70
     8
  0
VERTEX
  8
1
  6
CONTINUOUS
 62
    16
  5
B86
 10
-6155.82465
 20
-4066.538655
 30
0.0
 70
     8
  0
VERTEX
  8
1
  6
CONTINUOUS
 62
    16
  5
B87
 10
-6155.826729
 20
-4066.538654
 30
0.0
 70
     8
  0
VERTEX
  8
1
  6
CONTINUOUS
 62
    16
  5
B88
 10
-6155.828845
 20
-4066.538651
 30
0.0
 70
     8
  0
VERTEX
  8
1
  6
CONTINUOUS
 62
    16
  5
B89
 10
-6155.831018
 20
-4066.538646
 30
0.0
 70
     8
  0
VERTEX
  8
1
  6
CONTINUOUS
 62
    16
  5
B8A
 10
-6155.833266
 20
-4066.538637
 30
0.0
 70
     8
  0
VERTEX
  8
1
  6
CONTINUOUS
 62
    16
  5
B8B
 10
-6155.835607
 20
-4066.538623
 30
0.0
 70
     8
  0
VERTEX
  8
1
  6
CONTINUOUS
 62
    16
  5
B8C
 10
-6155.838061
 20
-4066.538605
 30
0.0
 70
     8
  0
VERTEX
  8
1
  6
CONTINUOUS
 62
    16
  5
B8D
 10
-6155.840646
 20
-4066.53858
 30
0.0
 70
     8
  0
VERTEX
  8
1
  6
CONTINUOUS
 62
    16
  5
B8E
 10
-6155.843381
 20
-4066.538548
 30
0.0
 70
     8
  0
VERTEX
  8
1
  6
CONTINUOUS
 62
    16
  5
B8F
 10
-6155.846284
 20
-4066.538508
 30
0.0
 70
     8
  0
VERTEX
  8
1
  6
CONTINUOUS
 62
    16
  5
B90
 10
-6155.849371
 20
-4066.538459
 30
0.0
 70
     8
  0
VERTEX
  8
1
  6
CONTINUOUS
 62
    16
  5
B91
 10
-6155.852641
 20
-4066.538399
 30
0.0
 70
     8
  0
VERTEX
  8
1
  6
CONTINUOUS
 62
    16
  5
B92
 10
-6155.856089
 20
-4066.538328
 30
0.0
 70
     8
  0
VERTEX
  8
1
  6
CONTINUOUS
 62
    16
  5
B93
 10
-6155.859711
 20
-4066.538242
 30
0.0
 70
     8
  0
VERTEX
  8
1
  6
CONTINUOUS
 62
    16
  5
B94
 10
-6155.863501
 20
-4066.538141
 30
0.0
 70
     8
  0
VERTEX
  8
1
  6
CONTINUOUS
 62
    16
  5
B95
 10
-6155.867455
 20
-4066.538023
 30
0.0
 70
     8
  0
VERTEX
  8
1
  6
CONTINUOUS
 62
    16
  5
B96
 10
-6155.871568
 20
-4066.537886
 30
0.0
 70
     8
  0
VERTEX
  8
1
  6
CONTINUOUS
 62
    16
  5
B97
 10
-6155.875837
 20
-4066.537729
 30
0.0
 70
     8
  0
VERTEX
  8
1
  6
CONTINUOUS
 62
    16
  5
B98
 10
-6155.880255
 20
-4066.53755
 30
0.0
 70
     8
  0
VERTEX
  8
1
  6
CONTINUOUS
 62
    16
  5
B99
 10
-6155.884819
 20
-4066.537346
 30
0.0
 70
     8
  0
VERTEX
  8
1
  6
CONTINUOUS
 62
    16
  5
B9A
 10
-6155.889521
 20
-4066.537118
 30
0.0
 70
     8
  0
VERTEX
  8
1
  6
CONTINUOUS
 62
    16
  5
B9B
 10
-6155.894341
 20
-4066.536864
 30
0.0
 70
     8
  0
VERTEX
  8
1
  6
CONTINUOUS
 62
    16
  5
B9C
 10
-6155.899255
 20
-4066.536585
 30
0.0
 70
     8
  0
VERTEX
  8
1
  6
CONTINUOUS
 62
    16
  5
B9D
 10
-6155.904241
 20
-4066.536279
 30
0.0
 70
     8
  0
VERTEX
  8
1
  6
CONTINUOUS
 62
    16
  5
B9E
 10
-6155.909276
 20
-4066.535948
 30
0.0
 70
     8
  0
VERTEX
  8
1
  6
CONTINUOUS
 62
    16
  5
B9F
 10
-6155.914336
 20
-4066.535591
 30
0.0
 70
     8
  0
VERTEX
  8
1
  6
CONTINUOUS
 62
    16
  5
BA0
 10
-6155.919399
 20
-4066.535207
 30
0.0
 70
     8
  0
VERTEX
  8
1
  6
CONTINUOUS
 62
    16
  5
BA1
 10
-6155.924442
 20
-4066.534797
 30
0.0
 70
     8
  0
VERTEX
  8
1
  6
CONTINUOUS
 62
    16
  5
BA2
 10
-6155.929442
 20
-4066.534361
 30
0.0
 70
     8
  0
VERTEX
  8
1
  6
CONTINUOUS
 62
    16
  5
BA3
 10
-6155.934375
 20
-4066.533898
 30
0.0
 70
     8
  0
VERTEX
  8
1
  6
CONTINUOUS
 62
    16
  5
BA4
 10
-6155.939222
 20
-4066.533409
 30
0.0
 70
     8
  0
VERTEX
  8
1
  6
CONTINUOUS
 62
    16
  5
BA5
 10
-6155.943969
 20
-4066.532897
 30
0.0
 70
     8
  0
VERTEX
  8
1
  6
CONTINUOUS
 62
    16
  5
BA6
 10
-6155.948606
 20
-4066.532364
 30
0.0
 70
     8
  0
VERTEX
  8
1
  6
CONTINUOUS
 62
    16
  5
BA7
 10
-6155.953125
 20
-4066.531815
 30
0.0
 70
     8
  0
VERTEX
  8
1
  6
CONTINUOUS
 62
    16
  5
BA8
 10
-6155.957514
 20
-4066.531252
 30
0.0
 70
     8
  0
VERTEX
  8
1
  6
CONTINUOUS
 62
    16
  5
BA9
 10
-6155.961765
 20
-4066.530679
 30
0.0
 70
     8
  0
VERTEX
  8
1
  6
CONTINUOUS
 62
    16
  5
BAA
 10
-6155.965866
 20
-4066.530099
 30
0.0
 70
     8
  0
VERTEX
  8
1
  6
CONTINUOUS
 62
    16
  5
BAB
 10
-6155.969808
 20
-4066.529515
 30
0.0
 70
     8
  0
VERTEX
  8
1
  6
CONTINUOUS
 62
    16
  5
BAC
 10
-6155.973581
 20
-4066.528931
 30
0.0
 70
     8
  0
VERTEX
  8
1
  6
CONTINUOUS
 62
    16
  5
BAD
 10
-6155.977175
 20
-4066.52835
 30
0.0
 70
     8
  0
VERTEX
  8
1
  6
CONTINUOUS
 62
    16
  5
BAE
 10
-6155.980584
 20
-4066.527773
 30
0.0
 70
     8
  0
VERTEX
  8
1
  6
CONTINUOUS
 62
    16
  5
BAF
 10
-6155.983814
 20
-4066.527201
 30
0.0
 70
     8
  0
VERTEX
  8
1
  6
CONTINUOUS
 62
    16
  5
BB0
 10
-6155.986875
 20
-4066.526628
 30
0.0
 70
     8
  0
VERTEX
  8
1
  6
CONTINUOUS
 62
    16
  5
BB1
 10
-6155.989777
 20
-4066.526052
 30
0.0
 70
     8
  0
VERTEX
  8
1
  6
CONTINUOUS
 62
    16
  5
BB2
 10
-6155.99253
 20
-4066.525471
 30
0.0
 70
     8
  0
VERTEX
  8
1
  6
CONTINUOUS
 62
    16
  5
BB3
 10
-6155.995144
 20
-4066.524882
 30
0.0
 70
     8
  0
VERTEX
  8
1
  6
CONTINUOUS
 62
    16
  5
BB4
 10
-6155.99763
 20
-4066.52428
 30
0.0
 70
     8
  0
VERTEX
  8
1
  6
CONTINUOUS
 62
    16
  5
BB5
 10
-6155.999996
 20
-4066.523665
 30
0.0
 70
     8
  0
VERTEX
  8
1
  6
CONTINUOUS
 62
    16
  5
BB6
 10
-6156.002254
 20
-4066.523031
 30
0.0
 70
     8
  0
VERTEX
  8
1
  6
CONTINUOUS
 62
    16
  5
BB7
 10
-6156.004414
 20
-4066.522377
 30
0.0
 70
     8
  0
VERTEX
  8
1
  6
CONTINUOUS
 62
    16
  5
BB8
 10
-6156.006481
 20
-4066.521701
 30
0.0
 70
     8
  0
VERTEX
  8
1
  6
CONTINUOUS
 62
    16
  5
BB9
 10
-6156.008452
 20
-4066.521008
 30
0.0
 70
     8
  0
VERTEX
  8
1
  6
CONTINUOUS
 62
    16
  5
BBA
 10
-6156.010319
 20
-4066.520303
 30
0.0
 70
     8
  0
VERTEX
  8
1
  6
CONTINUOUS
 62
    16
  5
BBB
 10
-6156.012074
 20
-4066.519591
 30
0.0
 70
     8
  0
VERTEX
  8
1
  6
CONTINUOUS
 62
    16
  5
BBC
 10
-6156.013708
 20
-4066.518879
 30
0.0
 70
     8
  0
VERTEX
  8
1
  6
CONTINUOUS
 62
    16
  5
BBD
 10
-6156.015215
 20
-4066.518173
 30
0.0
 70
     8
  0
VERTEX
  8
1
  6
CONTINUOUS
 62
    16
  5
BBE
 10
-6156.016586
 20
-4066.517477
 30
0.0
 70
     8
  0
VERTEX
  8
1
  6
CONTINUOUS
 62
    16
  5
BBF
 10
-6156.017813
 20
-4066.516799
 30
0.0
 70
     8
  0
VERTEX
  8
1
  6
CONTINUOUS
 62
    16
  5
BC0
 10
-6156.018889
 20
-4066.516143
 30
0.0
 70
     8
  0
VERTEX
  8
1
  6
CONTINUOUS
 62
    16
  5
BC1
 10
-6156.019806
 20
-4066.515516
 30
0.0
 70
     8
  0
VERTEX
  8
1
  6
CONTINUOUS
 62
    16
  5
BC2
 10
-6156.020561
 20
-4066.514922
 30
0.0
 70
     8
  0
VERTEX
  8
1
  6
CONTINUOUS
 62
    16
  5
BC3
 10
-6156.021164
 20
-4066.514358
 30
0.0
 70
     8
  0
VERTEX
  8
1
  6
CONTINUOUS
 62
    16
  5
BC4
 10
-6156.021635
 20
-4066.513822
 30
0.0
 70
     8
  0
VERTEX
  8
1
  6
CONTINUOUS
 62
    16
  5
BC5
 10
-6156.021988
 20
-4066.513309
 30
0.0
 70
     8
  0
VERTEX
  8
1
  6
CONTINUOUS
 62
    16
  5
BC6
 10
-6156.022241
 20
-4066.512818
 30
0.0
 70
     8
  0
VERTEX
  8
1
  6
CONTINUOUS
 62
    16
  5
BC7
 10
-6156.022411
 20
-4066.512343
 30
0.0
 70
     8
  0
VERTEX
  8
1
  6
CONTINUOUS
 62
    16
  5
BC8
 10
-6156.022514
 20
-4066.511882
 30
0.0
 70
     8
  0
VERTEX
  8
1
  6
CONTINUOUS
 62
    16
  5
BC9
 10
-6156.022567
 20
-4066.511431
 30
0.0
 70
     8
  0
VERTEX
  8
1
  6
CONTINUOUS
 62
    16
  5
BCA
 10
-6156.022586
 20
-4066.510988
 30
0.0
 70
     8
  0
VERTEX
  8
1
  6
CONTINUOUS
 62
    16
  5
BCB
 10
-6156.022589
 20
-4066.510547
 30
0.0
 70
     8
  0
VERTEX
  8
1
  6
CONTINUOUS
 62
    16
  5
BCC
 10
-6155.843161
 20
-4066.538655
 30
0.0
 70
    16
  0
VERTEX
  8
1
  6
CONTINUOUS
 62
    16
  5
BCD
 10
-6155.882473
 20
-4066.53777
 30
0.0
 70
    16
  0
VERTEX
  8
1
  6
CONTINUOUS
 62
    16
  5
BCE
 10
-6155.935864
 20
-4066.534343
 30
0.0
 70
    16
  0
VERTEX
  8
1
  6
CONTINUOUS
 62
    16
  5
BCF
 10
-6155.980324
 20
-4066.528247
 30
0.0
 70
    16
  0
VERTEX
  8
1
  6
CONTINUOUS
 62
    16
  5
BD0
 10
-6156.005892
 20
-4066.522768
 30
0.0
 70
    16
  0
VERTEX
  8
1
  6
CONTINUOUS
 62
    16
  5
BD1
 10
-6156.022589
 20
-4066.514945
 30
0.0
 70
    16
  0
VERTEX
  8
1
  6
CONTINUOUS
 62
    16
  5
BD2
 10
-6156.022589
 20
-4066.510547
 30
0.0
 70
    16
  0
SEQEND
  8
1
  6
CONTINUOUS
 62
    16
  5
BD3
  0
LINE
  8
1
  6
CONTINUOUS
 62
    16
  5
BD4
 10
-6154.372589
 20
-4063.690546
 30
0.0
 11
-6154.372589
 21
-4065.290546
 31
0.0
  0
LINE
  8
1
  6
CONTINUOUS
 62
    16
  5
BD5
 10
-6148.372589
 20
-4070.43091
 30
0.0
 11
-6148.372589
 21
-4073.350182
 31
0.0
  0
LINE
  8
1
  6
CONTINUOUS
 62
    16
  5
BD6
 10
-6149.857225
 20
-4071.890546
 30
0.0
 11
-6146.887953
 21
-4071.890546
 31
0.0
  0
CIRCLE
  8
1
  6
CONTINUOUS
 62
    16
  5
BD7
 10
-6041.792589
 20
-4063.390546
 30
0.0
 40
1.25
  0
LINE
  8
1
  6
CONTINUOUS
 62
    16
  5
BD8
 10
-6044.492589
 20
-4063.390546
 30
0.0
 11
-6043.142589
 21
-4065.728815
 31
0.0
  0
LINE
  8
1
  6
CONTINUOUS
 62
    16
  5
BD9
 10
-6043.142589
 20
-4065.728815
 30
0.0
 11
-6040.442589
 21
-4065.728815
 31
0.0
  0
LINE
  8
1
  6
CONTINUOUS
 62
    16
  5
BDA
 10
-6040.442589
 20
-4065.728815
 30
0.0
 11
-6039.092589
 21
-4063.390546
 31
0.0
  0
LINE
  8
1
  6
CONTINUOUS
 62
    16
  5
BDB
 10
-6039.092589
 20
-4063.390546
 30
0.0
 11
-6040.442589
 21
-4061.052278
 31
0.0
  0
LINE
  8
1
  6
CONTINUOUS
 62
    16
  5
BDC
 10
-6040.442589
 20
-4061.052278
 30
0.0
 11
-6043.142589
 21
-4061.052278
 31
0.0
  0
LINE
  8
1
  6
CONTINUOUS
 62
    16
  5
BDD
 10
-6043.142589
 20
-4061.052278
 30
0.0
 11
-6044.492589
 21
-4063.390546
 31
0.0
  0
CIRCLE
  8
1
  6
CONTINUOUS
 62
    16
  5
BDE
 10
-6034.772589
 20
-4064.810546
 30
0.0
 40
0.5
  0
ARC
  8
1
  6
CONTINUOUS
 62
    16
  5
BDF
 10
-6034.461182
 20
-4061.250546
 30
0.0
 40
2.54
 50
90.0
 51
170.002497
  0
LINE
  8
1
  6
CONTINUOUS
 62
    16
  5
BE0
 10
-6036.962613
 20
-4060.809589
 30
0.0
 11
-6037.7171
 21
-4065.089589
 31
0.0
  0
ARC
  8
1
  6
CONTINUOUS
 62
    16
  5
BE1
 10
-6035.215669
 20
-4065.530546
 30
0.0
 40
2.54
 50
170.002497
 51
270.0
  0
ARC
  8
1
  6
CONTINUOUS
 62
    16
  5
BE2
 10
-6043.292589
 20
-4068.390546
 30
0.0
 40
1.5
 50
180.0
 51
270.0
  0
LINE
  8
1
  6
CONTINUOUS
 62
    16
  5
BE3
 10
-6044.792589
 20
-4058.390546
 30
0.0
 11
-6044.792589
 21
-4068.390546
 31
0.0
  0
ARC
  8
1
  6
CONTINUOUS
 62
    16
  5
BE4
 10
-6043.292589
 20
-4058.390546
 30
0.0
 40
1.5
 50
90.0
 51
180.0
  0
CIRCLE
  8
1
  6
CONTINUOUS
 62
    16
  5
BE5
 10
-5994.872589
 20
-4063.390546
 30
0.0
 40
1.25
  0
LINE
  8
1
  6
CONTINUOUS
 62
    16
  5
BE6
 10
-5997.572589
 20
-4063.390546
 30
0.0
 11
-5996.222589
 21
-4065.728815
 31
0.0
  0
LINE
  8
1
  6
CONTINUOUS
 62
    16
  5
BE7
 10
-5996.222589
 20
-4065.728815
 30
0.0
 11
-5993.522589
 21
-4065.728815
 31
0.0
  0
LINE
  8
1
  6
CONTINUOUS
 62
    16
  5
BE8
 10
-5993.522589
 20
-4065.728815
 30
0.0
 11
-5992.172589
 21
-4063.390546
 31
0.0
  0
LINE
  8
1
  6
CONTINUOUS
 62
    16
  5
BE9
 10
-5992.172589
 20
-4063.390546
 30
0.0
 11
-5993.522589
 21
-4061.052278
 31
0.0
  0
LINE
  8
1
  6
CONTINUOUS
 62
    16
  5
BEA
 10
-5993.522589
 20
-4061.052278
 30
0.0
 11
-5996.222589
 21
-4061.052278
 31
0.0
  0
LINE
  8
1
  6
CONTINUOUS
 62
    16
  5
BEB
 10
-5996.222589
 20
-4061.052278
 30
0.0
 11
-5997.572589
 21
-4063.390546
 31
0.0
  0
CIRCLE
  8
1
  6
CONTINUOUS
 62
    16
  5
BEC
 10
-6003.262589
 20
-4061.970546
 30
0.0
 40
0.5
  0
CIRCLE
  8
1
  6
CONTINUOUS
 62
    16
  5
BED
 10
-6001.892589
 20
-4064.810546
 30
0.0
 40
0.5
  0
CIRCLE
  8
1
  6
CONTINUOUS
 62
    16
  5
BEE
 10
-6004.632589
 20
-4064.810546
 30
0.0
 40
0.5
  0
CIRCLE
  8
1
  6
CONTINUOUS
 62
    16
  5
BEF
 10
-6006.002589
 20
-4061.970546
 30
0.0
 40
0.5
  0
ARC
  8
1
  6
CONTINUOUS
 62
    16
  5
BF0
 10
-6001.449509
 20
-4065.530546
 30
0.0
 40
2.54
 50
270.0
 51
9.997503
  0
LINE
  8
1
  6
CONTINUOUS
 62
    16
  5
BF1
 10
-5998.948079
 20
-4065.089589
 30
0.0
 11
-5999.702566
 21
-4060.809589
 31
0.0
  0
ARC
  8
1
  6
CONTINUOUS
 62
    16
  5
BF2
 10
-6002.203997
 20
-4061.250546
 30
0.0
 40
2.54
 50
9.997503
 51
90.0
  0
LINE
  8
1
  6
CONTINUOUS
 62
    16
  5
BF3
 10
-6002.203997
 20
-4058.710546
 30
0.0
 11
-6034.461182
 21
-4058.710546
 31
0.0
  0
LINE
  8
1
  6
CONTINUOUS
 62
    16
  5
BF4
 10
-6035.215669
 20
-4068.070546
 30
0.0
 11
-6001.449509
 21
-4068.070546
 31
0.0
  0
ARC
  8
1
  6
CONTINUOUS
 62
    16
  5
BF5
 10
-5993.372589
 20
-4058.390546
 30
0.0
 40
1.5
 50
0.0
 51
90.0
  0
LINE
  8
1
  6
CONTINUOUS
 62
    16
  5
BF6
 10
-5991.872589
 20
-4058.390546
 30
0.0
 11
-5991.872589
 21
-4068.390546
 31
0.0
  0
ARC
  8
1
  6
CONTINUOUS
 62
    16
  5
BF7
 10
-5993.372589
 20
-4068.390546
 30
0.0
 40
1.5
 50
270.0
 51
0.0
  0
LINE
  8
1
  6
CONTINUOUS
 62
    16
  5
BF8
 10
-5993.372589
 20
-4069.890546
 30
0.0
 11
-6043.292589
 21
-4069.890546
 31
0.0
  0
LINE
  8
1
  6
CONTINUOUS
 62
    16
  5
BF9
 10
-5993.372589
 20
-4056.890546
 30
0.0
 11
-6043.292589
 21
-4056.890546
 31
0.0
  0
CIRCLE
  8
1
  6
CONTINUOUS
 62
    16
  5
BFA
 10
-6033.402589
 20
-4061.970546
 30
0.0
 40
0.5
  0
CIRCLE
  8
1
  6
CONTINUOUS
 62
    16
  5
BFB
 10
-6032.032589
 20
-4064.810546
 30
0.0
 40
0.5
  0
CIRCLE
  8
1
  6
CONTINUOUS
 62
    16
  5
BFC
 10
-6029.292589
 20
-4064.810546
 30
0.0
 40
0.5
  0
CIRCLE
  8
1
  6
CONTINUOUS
 62
    16
  5
BFD
 10
-6030.662589
 20
-4061.970546
 30
0.0
 40
0.5
  0
CIRCLE
  8
1
  6
CONTINUOUS
 62
    16
  5
BFE
 10
-6027.922589
 20
-4061.970546
 30
0.0
 40
0.5
  0
CIRCLE
  8
1
  6
CONTINUOUS
 62
    16
  5
BFF
 10
-6026.552589
 20
-4064.810546
 30
0.0
 40
0.5
  0
CIRCLE
  8
1
  6
CONTINUOUS
 62
    16
  5
C00
 10
-6023.812589
 20
-4064.810546
 30
0.0
 40
0.5
  0
CIRCLE
  8
1
  6
CONTINUOUS
 62
    16
  5
C01
 10
-6025.182589
 20
-4061.970546
 30
0.0
 40
0.5
  0
CIRCLE
  8
1
  6
CONTINUOUS
 62
    16
  5
C02
 10
-6022.442589
 20
-4061.970546
 30
0.0
 40
0.5
  0
CIRCLE
  8
1
  6
CONTINUOUS
 62
    16
  5
C03
 10
-6021.072589
 20
-4064.810546
 30
0.0
 40
0.5
  0
CIRCLE
  8
1
  6
CONTINUOUS
 62
    16
  5
C04
 10
-6018.332589
 20
-4064.810546
 30
0.0
 40
0.5
  0
CIRCLE
  8
1
  6
CONTINUOUS
 62
    16
  5
C05
 10
-6019.702589
 20
-4061.970546
 30
0.0
 40
0.5
  0
CIRCLE
  8
1
  6
CONTINUOUS
 62
    16
  5
C06
 10
-6016.962589
 20
-4061.970546
 30
0.0
 40
0.5
  0
CIRCLE
  8
1
  6
CONTINUOUS
 62
    16
  5
C07
 10
-6015.592589
 20
-4064.810546
 30
0.0
 40
0.5
  0
CIRCLE
  8
1
  6
CONTINUOUS
 62
    16
  5
C08
 10
-6012.852589
 20
-4064.810546
 30
0.0
 40
0.5
  0
CIRCLE
  8
1
  6
CONTINUOUS
 62
    16
  5
C09
 10
-6014.222589
 20
-4061.970546
 30
0.0
 40
0.5
  0
CIRCLE
  8
1
  6
CONTINUOUS
 62
    16
  5
C0A
 10
-6011.482589
 20
-4061.970546
 30
0.0
 40
0.5
  0
CIRCLE
  8
1
  6
CONTINUOUS
 62
    16
  5
C0B
 10
-6010.112589
 20
-4064.810546
 30
0.0
 40
0.5
  0
CIRCLE
  8
1
  6
CONTINUOUS
 62
    16
  5
C0C
 10
-6007.372589
 20
-4064.810546
 30
0.0
 40
0.5
  0
CIRCLE
  8
1
  6
CONTINUOUS
 62
    16
  5
C0D
 10
-6008.742589
 20
-4061.970546
 30
0.0
 40
0.5
  0
CIRCLE
  8
1
  6
CONTINUOUS
 62
    16
  5
C0E
 10
-6056.372589
 20
-4063.390546
 30
0.0
 40
1.25
  0
CIRCLE
  8
1
  6
CONTINUOUS
 62
    16
  5
C0F
 10
-6081.372589
 20
-4063.390546
 30
0.0
 40
1.25
  0
LINE
  8
1
  6
CONTINUOUS
 62
    16
  5
C10
 10
-6059.072589
 20
-4063.390546
 30
0.0
 11
-6057.722589
 21
-4065.728815
 31
0.0
  0
LINE
  8
1
  6
CONTINUOUS
 62
    16
  5
C11
 10
-6057.722589
 20
-4065.728815
 30
0.0
 11
-6055.022589
 21
-4065.728815
 31
0.0
  0
LINE
  8
1
  6
CONTINUOUS
 62
    16
  5
C12
 10
-6055.022589
 20
-4065.728815
 30
0.0
 11
-6053.672589
 21
-4063.390546
 31
0.0
  0
LINE
  8
1
  6
CONTINUOUS
 62
    16
  5
C13
 10
-6053.672589
 20
-4063.390546
 30
0.0
 11
-6055.022589
 21
-4061.052278
 31
0.0
  0
LINE
  8
1
  6
CONTINUOUS
 62
    16
  5
C14
 10
-6055.022589
 20
-4061.052278
 30
0.0
 11
-6057.722589
 21
-4061.052278
 31
0.0
  0
LINE
  8
1
  6
CONTINUOUS
 62
    16
  5
C15
 10
-6057.722589
 20
-4061.052278
 30
0.0
 11
-6059.072589
 21
-4063.390546
 31
0.0
  0
LINE
  8
1
  6
CONTINUOUS
 62
    16
  5
C16
 10
-6084.072589
 20
-4063.390546
 30
0.0
 11
-6082.722589
 21
-4065.728815
 31
0.0
  0
LINE
  8
1
  6
CONTINUOUS
 62
    16
  5
C17
 10
-6082.722589
 20
-4065.728815
 30
0.0
 11
-6080.022589
 21
-4065.728815
 31
0.0
  0
LINE
  8
1
  6
CONTINUOUS
 62
    16
  5
C18
 10
-6080.022589
 20
-4065.728815
 30
0.0
 11
-6078.672589
 21
-4063.390546
 31
0.0
  0
LINE
  8
1
  6
CONTINUOUS
 62
    16
  5
C19
 10
-6078.672589
 20
-4063.390546
 30
0.0
 11
-6080.022589
 21
-4061.052278
 31
0.0
  0
LINE
  8
1
  6
CONTINUOUS
 62
    16
  5
C1A
 10
-6080.022589
 20
-4061.052278
 30
0.0
 11
-6082.722589
 21
-4061.052278
 31
0.0
  0
LINE
  8
1
  6
CONTINUOUS
 62
    16
  5
C1B
 10
-6082.722589
 20
-4061.052278
 30
0.0
 11
-6084.072589
 21
-4063.390546
 31
0.0
  0
CIRCLE
  8
1
  6
CONTINUOUS
 62
    16
  5
C1C
 10
-6072.982589
 20
-4061.970546
 30
0.0
 40
0.5
  0
CIRCLE
  8
1
  6
CONTINUOUS
 62
    16
  5
C1D
 10
-6074.352589
 20
-4064.810546
 30
0.0
 40
0.5
  0
CIRCLE
  8
1
  6
CONTINUOUS
 62
    16
  5
C1E
 10
-6071.612589
 20
-4064.810546
 30
0.0
 40
0.5
  0
CIRCLE
  8
1
  6
CONTINUOUS
 62
    16
  5
C1F
 10
-6064.762589
 20
-4061.970546
 30
0.0
 40
0.5
  0
CIRCLE
  8
1
  6
CONTINUOUS
 62
    16
  5
C20
 10
-6063.392589
 20
-4064.810546
 30
0.0
 40
0.5
  0
CIRCLE
  8
1
  6
CONTINUOUS
 62
    16
  5
C21
 10
-6066.132589
 20
-4064.810546
 30
0.0
 40
0.5
  0
CIRCLE
  8
1
  6
CONTINUOUS
 62
    16
  5
C22
 10
-6068.872589
 20
-4064.810546
 30
0.0
 40
0.5
  0
CIRCLE
  8
1
  6
CONTINUOUS
 62
    16
  5
C23
 10
-6070.242589
 20
-4061.970546
 30
0.0
 40
0.5
  0
CIRCLE
  8
1
  6
CONTINUOUS
 62
    16
  5
C24
 10
-6067.502589
 20
-4061.970546
 30
0.0
 40
0.5
  0
ARC
  8
1
  6
CONTINUOUS
 62
    16
  5
C25
 10
-6062.949509
 20
-4065.530546
 30
0.0
 40
2.54
 50
270.0
 51
9.997503
  0
LINE
  8
1
  6
CONTINUOUS
 62
    16
  5
C26
 10
-6060.448079
 20
-4065.089589
 30
0.0
 11
-6061.202566
 21
-4060.809589
 31
0.0
  0
ARC
  8
1
  6
CONTINUOUS
 62
    16
  5
C27
 10
-6063.703997
 20
-4061.250546
 30
0.0
 40
2.54
 50
9.997503
 51
90.0
  0
LINE
  8
1
  6
CONTINUOUS
 62
    16
  5
C28
 10
-6063.703997
 20
-4058.710546
 30
0.0
 11
-6074.041182
 21
-4058.710546
 31
0.0
  0
ARC
  8
1
  6
CONTINUOUS
 62
    16
  5
C29
 10
-6074.041182
 20
-4061.250546
 30
0.0
 40
2.54
 50
90.0
 51
170.002497
  0
LINE
  8
1
  6
CONTINUOUS
 62
    16
  5
C2A
 10
-6076.542613
 20
-4060.809589
 30
0.0
 11
-6077.2971
 21
-4065.089589
 31
0.0
  0
ARC
  8
1
  6
CONTINUOUS
 62
    16
  5
C2B
 10
-6074.795669
 20
-4065.530546
 30
0.0
 40
2.54
 50
170.002497
 51
270.0
  0
LINE
  8
1
  6
CONTINUOUS
 62
    16
  5
C2C
 10
-6074.795669
 20
-4068.070546
 30
0.0
 11
-6062.949509
 21
-4068.070546
 31
0.0
  0
ARC
  8
1
  6
CONTINUOUS
 62
    16
  5
C2D
 10
-6054.872589
 20
-4058.390546
 30
0.0
 40
1.5
 50
0.0
 51
90.0
  0
LINE
  8
1
  6
CONTINUOUS
 62
    16
  5
C2E
 10
-6053.372589
 20
-4058.390546
 30
0.0
 11
-6053.372589
 21
-4068.390546
 31
0.0
  0
ARC
  8
1
  6
CONTINUOUS
 62
    16
  5
C2F
 10
-6054.872589
 20
-4068.390546
 30
0.0
 40
1.5
 50
270.0
 51
0.0
  0
LINE
  8
1
  6
CONTINUOUS
 62
    16
  5
C30
 10
-6054.872589
 20
-4069.890546
 30
0.0
 11
-6082.872589
 21
-4069.890546
 31
0.0
  0
ARC
  8
1
  6
CONTINUOUS
 62
    16
  5
C31
 10
-6082.872589
 20
-4068.390546
 30
0.0
 40
1.5
 50
180.0
 51
270.0
  0
LINE
  8
1
  6
CONTINUOUS
 62
    16
  5
C32
 10
-6084.372589
 20
-4058.390546
 30
0.0
 11
-6084.372589
 21
-4068.390546
 31
0.0
  0
ARC
  8
1
  6
CONTINUOUS
 62
    16
  5
C33
 10
-6082.872589
 20
-4058.390546
 30
0.0
 40
1.5
 50
90.0
 51
180.0
  0
LINE
  8
1
  6
CONTINUOUS
 62
    16
  5
C34
 10
-6054.872589
 20
-4056.890546
 30
0.0
 11
-6082.872589
 21
-4056.890546
 31
0.0
  0
ARC
  8
1
  6
CONTINUOUS
 62
    16
  5
C35
 10
-6121.872589
 20
-4058.390546
 30
0.0
 40
1.5
 50
90.0
 51
180.0
  0
LINE
  8
1
  6
CONTINUOUS
 62
    16
  5
C36
 10
-6123.372589
 20
-4058.390546
 30
0.0
 11
-6123.372589
 21
-4068.390546
 31
0.0
  0
ARC
  8
1
  6
CONTINUOUS
 62
    16
  5
C37
 10
-6121.872589
 20
-4068.390546
 30
0.0
 40
1.5
 50
180.0
 51
270.0
  0
LINE
  8
1
  6
CONTINUOUS
 62
    16
  5
C38
 10
-6121.872589
 20
-4069.890546
 30
0.0
 11
-6093.872589
 21
-4069.890546
 31
0.0
  0
ARC
  8
1
  6
CONTINUOUS
 62
    16
  5
C39
 10
-6093.872589
 20
-4068.390546
 30
0.0
 40
1.5
 50
270.0
 51
0.0
  0
LINE
  8
1
  6
CONTINUOUS
 62
    16
  5
C3A
 10
-6092.372589
 20
-4058.390546
 30
0.0
 11
-6092.372589
 21
-4068.390546
 31
0.0
  0
ARC
  8
1
  6
CONTINUOUS
 62
    16
  5
C3B
 10
-6093.872589
 20
-4058.390546
 30
0.0
 40
1.5
 50
0.0
 51
90.0
  0
LINE
  8
1
  6
CONTINUOUS
 62
    16
  5
C3C
 10
-6121.872589
 20
-4056.890546
 30
0.0
 11
-6093.872589
 21
-4056.890546
 31
0.0
  0
CIRCLE
  8
1
  6
CONTINUOUS
 62
    16
  5
C3D
 10
-6870.059887
 20
-3464.735497
 30
0.0
 40
2.25
  0
LINE
  8
1
  6
CONTINUOUS
 62
    16
  5
C3E
 10
-6685.559887
 20
-3458.735497
 30
0.0
 11
-6685.559887
 21
-3458.985497
 31
0.0
  0
LINE
  8
1
  6
CONTINUOUS
 62
    16
  5
C3F
 10
-6685.059887
 20
-3450.235497
 30
0.0
 11
-6694.059887
 21
-3450.235497
 31
0.0
  0
LINE
  8
1
  6
CONTINUOUS
 62
    16
  5
C40
 10
-6684.559887
 20
-3450.735497
 30
0.0
 11
-6684.559887
 21
-3455.735497
 31
0.0
  0
LINE
  8
1
  6
CONTINUOUS
 62
    16
  5
C41
 10
-6684.559887
 20
-3450.735497
 30
0.0
 11
-6694.559887
 21
-3450.735497
 31
0.0
  0
LINE
  8
1
  6
CONTINUOUS
 62
    16
  5
C42
 10
-6694.559887
 20
-3450.735497
 30
0.0
 11
-6694.559887
 21
-3455.735497
 31
0.0
  0
LINE
  8
1
  6
CONTINUOUS
 62
    16
  5
C43
 10
-6694.059887
 20
-3450.235497
 30
0.0
 11
-6694.059887
 21
-3450.735497
 31
0.0
  0
LINE
  8
1
  6
CONTINUOUS
 62
    16
  5
C44
 10
-6685.059887
 20
-3450.235497
 30
0.0
 11
-6685.059887
 21
-3450.735497
 31
0.0
  0
LINE
  8
1
  6
CONTINUOUS
 62
    16
  5
C45
 10
-6748.559887
 20
-3452.735497
 30
0.0
 11
-6748.559887
 21
-3455.735497
 31
0.0
  0
LINE
  8
1
  6
CONTINUOUS
 62
    16
  5
C46
 10
-6722.559887
 20
-3452.735497
 30
0.0
 11
-6722.559887
 21
-3455.735497
 31
0.0
  0
LINE
  8
1
  6
CONTINUOUS
 62
    16
  5
C47
 10
-6722.559887
 20
-3452.735497
 30
0.0
 11
-6748.559887
 21
-3452.735497
 31
0.0
  0
LINE
  8
1
  6
CONTINUOUS
 62
    16
  5
C48
 10
-6723.559887
 20
-3450.735497
 30
0.0
 11
-6747.559887
 21
-3450.735497
 31
0.0
  0
LINE
  8
1
  6
CONTINUOUS
 62
    16
  5
C49
 10
-6747.559887
 20
-3450.735497
 30
0.0
 11
-6747.559887
 21
-3452.735497
 31
0.0
  0
LINE
  8
1
  6
CONTINUOUS
 62
    16
  5
C4A
 10
-6723.559887
 20
-3450.735497
 30
0.0
 11
-6723.559887
 21
-3452.735497
 31
0.0
  0
LINE
  8
1
  6
CONTINUOUS
 62
    16
  5
C4B
 10
-6901.559887
 20
-3454.735497
 30
0.0
 11
-6901.559887
 21
-3455.735497
 31
0.0
  0
LINE
  8
1
  6
CONTINUOUS
 62
    16
  5
C4C
 10
-6848.639887
 20
-3454.735497
 30
0.0
 11
-6901.559887
 21
-3454.735497
 31
0.0
  0
LINE
  8
1
  6
CONTINUOUS
 62
    16
  5
C4D
 10
-6848.639887
 20
-3454.735497
 30
0.0
 11
-6848.639887
 21
-3455.735497
 31
0.0
  0
LINE
  8
1
  6
CONTINUOUS
 62
    16
  5
C4E
 10
-6840.059887
 20
-3454.735497
 30
0.0
 11
-6840.059887
 21
-3455.735497
 31
0.0
  0
LINE
  8
1
  6
CONTINUOUS
 62
    16
  5
C4F
 10
-6809.059887
 20
-3454.735497
 30
0.0
 11
-6840.059887
 21
-3454.735497
 31
0.0
  0
LINE
  8
1
  6
CONTINUOUS
 62
    16
  5
C50
 10
-6809.059887
 20
-3454.735497
 30
0.0
 11
-6809.059887
 21
-3455.735497
 31
0.0
  0
LINE
  8
1
  6
CONTINUOUS
 62
    16
  5
C51
 10
-6801.059887
 20
-3454.735497
 30
0.0
 11
-6801.059887
 21
-3455.735497
 31
0.0
  0
LINE
  8
1
  6
CONTINUOUS
 62
    16
  5
C52
 10
-6770.059887
 20
-3454.735497
 30
0.0
 11
-6801.059887
 21
-3454.735497
 31
0.0
  0
LINE
  8
1
  6
CONTINUOUS
 62
    16
  5
C53
 10
-6770.059887
 20
-3454.735497
 30
0.0
 11
-6770.059887
 21
-3455.735497
 31
0.0
  0
LINE
  8
1
  6
CONTINUOUS
 62
    16
  5
C54
 10
-6901.259887
 20
-3451.735497
 30
0.0
 11
-6901.259887
 21
-3454.735497
 31
0.0
  0
LINE
  8
1
  6
CONTINUOUS
 62
    16
  5
C55
 10
-6895.859887
 20
-3451.735497
 30
0.0
 11
-6901.259887
 21
-3451.735497
 31
0.0
  0
LINE
  8
1
  6
CONTINUOUS
 62
    16
  5
C56
 10
-6895.859887
 20
-3451.735497
 30
0.0
 11
-6895.859887
 21
-3454.735497
 31
0.0
  0
LINE
  8
1
  6
CONTINUOUS
 62
    16
  5
C57
 10
-6899.909887
 20
-3454.735497
 30
0.0
 11
-6899.909887
 21
-3451.735497
 31
0.0
  0
LINE
  8
1
  6
CONTINUOUS
 62
    16
  5
C58
 10
-6897.209887
 20
-3454.735497
 30
0.0
 11
-6897.209887
 21
-3451.735497
 31
0.0
  0
LINE
  8
1
  6
CONTINUOUS
 62
    16
  5
C59
 10
-6854.339887
 20
-3451.735497
 30
0.0
 11
-6854.339887
 21
-3454.735497
 31
0.0
  0
LINE
  8
1
  6
CONTINUOUS
 62
    16
  5
C5A
 10
-6848.939887
 20
-3451.735497
 30
0.0
 11
-6854.339887
 21
-3451.735497
 31
0.0
  0
LINE
  8
1
  6
CONTINUOUS
 62
    16
  5
C5B
 10
-6848.939887
 20
-3451.735497
 30
0.0
 11
-6848.939887
 21
-3454.735497
 31
0.0
  0
LINE
  8
1
  6
CONTINUOUS
 62
    16
  5
C5C
 10
-6852.989887
 20
-3454.735497
 30
0.0
 11
-6852.989887
 21
-3451.735497
 31
0.0
  0
LINE
  8
1
  6
CONTINUOUS
 62
    16
  5
C5D
 10
-6850.289887
 20
-3454.735497
 30
0.0
 11
-6850.289887
 21
-3451.735497
 31
0.0
  0
LINE
  8
1
  6
CONTINUOUS
 62
    16
  5
C5E
 10
-6839.759887
 20
-3451.735497
 30
0.0
 11
-6839.759887
 21
-3454.735497
 31
0.0
  0
LINE
  8
1
  6
CONTINUOUS
 62
    16
  5
C5F
 10
-6834.359887
 20
-3451.735497
 30
0.0
 11
-6839.759887
 21
-3451.735497
 31
0.0
  0
LINE
  8
1
  6
CONTINUOUS
 62
    16
  5
C60
 10
-6834.359887
 20
-3451.735497
 30
0.0
 11
-6834.359887
 21
-3454.735497
 31
0.0
  0
LINE
  8
1
  6
CONTINUOUS
 62
    16
  5
C61
 10
-6838.409887
 20
-3454.735497
 30
0.0
 11
-6838.409887
 21
-3451.735497
 31
0.0
  0
LINE
  8
1
  6
CONTINUOUS
 62
    16
  5
C62
 10
-6835.709887
 20
-3454.735497
 30
0.0
 11
-6835.709887
 21
-3451.735497
 31
0.0
  0
LINE
  8
1
  6
CONTINUOUS
 62
    16
  5
C63
 10
-6814.759887
 20
-3451.735497
 30
0.0
 11
-6814.759887
 21
-3454.735497
 31
0.0
  0
LINE
  8
1
  6
CONTINUOUS
 62
    16
  5
C64
 10
-6809.359887
 20
-3451.735497
 30
0.0
 11
-6814.759887
 21
-3451.735497
 31
0.0
  0
LINE
  8
1
  6
CONTINUOUS
 62
    16
  5
C65
 10
-6809.359887
 20
-3451.735497
 30
0.0
 11
-6809.359887
 21
-3454.735497
 31
0.0
  0
LINE
  8
1
  6
CONTINUOUS
 62
    16
  5
C66
 10
-6813.409887
 20
-3454.735497
 30
0.0
 11
-6813.409887
 21
-3451.735497
 31
0.0
  0
LINE
  8
1
  6
CONTINUOUS
 62
    16
  5
C67
 10
-6810.709887
 20
-3454.735497
 30
0.0
 11
-6810.709887
 21
-3451.735497
 31
0.0
  0
LINE
  8
1
  6
CONTINUOUS
 62
    16
  5
C68
 10
-6894.484397
 20
-3450.735497
 30
0.0
 11
-6894.484397
 21
-3454.735497
 31
0.0
  0
LINE
  8
1
  6
CONTINUOUS
 62
    16
  5
C69
 10
-6855.715376
 20
-3450.735497
 30
0.0
 11
-6894.484397
 21
-3450.735497
 31
0.0
  0
LINE
  8
1
  6
CONTINUOUS
 62
    16
  5
C6A
 10
-6855.715376
 20
-3450.735497
 30
0.0
 11
-6855.715376
 21
-3454.735497
 31
0.0
  0
LINE
  8
1
  6
CONTINUOUS
 62
    16
  5
C6B
 10
-6832.984397
 20
-3450.735497
 30
0.0
 11
-6832.984397
 21
-3454.735497
 31
0.0
  0
LINE
  8
1
  6
CONTINUOUS
 62
    16
  5
C6C
 10
-6816.135376
 20
-3450.735497
 30
0.0
 11
-6832.984397
 21
-3450.735497
 31
0.0
  0
LINE
  8
1
  6
CONTINUOUS
 62
    16
  5
C6D
 10
-6816.135376
 20
-3450.735497
 30
0.0
 11
-6816.135376
 21
-3454.735497
 31
0.0
  0
TEXT
  8
2
  6
CONTINUOUS
 62
     7
  5
C6E
 10
-6477.8
 20
-4802.981553
 30
0.0
 40
13.030729
  1
NOTE
 41
0.7
  7
ＭＳ_Ｐゴシック
 72
     5
 11
-6441.313958
 21
-4802.981553
 31
0.0
  0
TEXT
  8
2
  6
CONTINUOUS
 62
     7
  5
C6F
 10
-6197.8
 20
-4802.981553
 30
0.0
 40
13.030729
  1
TITLE
 41
0.7
  7
ＭＳ_Ｐゴシック
 72
     5
 11
-6152.192448
 21
-4802.981553
 31
0.0
  0
TEXT
  8
2
  6
CONTINUOUS
 62
     7
  5
C70
 10
-6097.8
 20
-4902.530993
 30
0.0
 40
13.030729
  1
DRAWN
 41
0.7
  7
ＭＳ_Ｐゴシック
 72
     5
 11
-6052.192448
 21
-4902.530993
 31
0.0
  0
TEXT
  8
2
  6
CONTINUOUS
 62
     7
  5
C71
 10
-6297.8
 20
-4902.530993
 30
0.0
 40
13.030729
  1
DATE
 41
0.7
  7
ＭＳ_Ｐゴシック
 72
     5
 11
-6261.313958
 21
-4902.530993
 31
0.0
  0
TEXT
  8
2
  6
CONTINUOUS
 62
     7
  5
C72
 10
-6377.8
 20
-4902.530993
 30
0.0
 40
13.030729
  1
SCALE
 41
0.7
  7
ＭＳ_Ｐゴシック
 72
     5
 11
-6332.192448
 21
-4902.530993
 31
0.0
  0
TEXT
  8
2
  6
CONTINUOUS
 62
     7
  5
C73
 10
-6197.8
 20
-4902.530993
 30
0.0
 40
13.030729
  1
DESIGN
 41
0.7
  7
ＭＳ_Ｐゴシック
 72
     5
 11
-6143.070938
 21
-4902.530993
 31
0.0
  0
TEXT
  8
2
  6
CONTINUOUS
 62
     7
  5
C74
 10
-5897.8
 20
-4902.530993
 30
0.0
 40
13.030729
  1
DRAWING NO.
 41
0.7
  7
ＭＳ_Ｐゴシック
 72
     5
 11
-5797.463385
 21
-4902.530993
 31
0.0
  0
TEXT
  8
2
  6
CONTINUOUS
 62
     7
  5
C75
 10
-5997.8
 20
-4902.530993
 30
0.0
 40
13.030729
  1
CHECK
 41
0.7
  7
ＭＳ_Ｐゴシック
 72
     5
 11
-5952.192448
 21
-4902.530993
 31
0.0
  0
TEXT
  8
2
  6
CONTINUOUS
 62
     7
  5
C76
 10
-6375.0
 20
-4931.783553
 30
0.0
 40
13.030729
  1
1
 41
0.7
  7
ＭＳ_Ｐゴシック
 72
     5
 11
-6365.87849
 21
-4931.783553
 31
0.0
  0
TEXT
  8
2
  6
CONTINUOUS
 62
     7
  5
C77
 10
-6345.0
 20
-4946.783553
 30
0.0
 40
13.030729
  1
8
 41
0.7
  7
ＭＳ_Ｐゴシック
 72
     5
 11
-6335.87849
 21
-4946.783553
 31
0.0
  0
TEXT
  8
2
  6
CONTINUOUS
 62
     7
  5
C78
 10
-6453.933333
 20
-4947.104006
 30
0.0
 40
26.061458
  1
A4
 41
0.7
  7
ＭＳ_Ｐゴシック
 72
     5
 11
-6417.447292
 21
-4947.104006
 31
0.0
  0
TEXT
  8
2
  6
CONTINUOUS
 62
     7
  5
C79
 10
-6477.333333
 20
-4903.867646
 30
0.0
 40
13.030729
  1
PAPER SIZE
 41
0.7
  7
ＭＳ_Ｐゴシック
 72
     5
 11
-6386.118229
 21
-4903.867646
 31
0.0
  0
TEXT
  8
4
  6
CONTINUOUS
 62
     7
  5
C7A
 10
-6645.0
 20
-4864.756086
 30
0.0
 40
19.546094
  1
(単位：mm)
 41
0.5859
  7
ＭＳ_Ｐゴシック
 72
     5
 11
-6549.224141
 21
-4864.756086
 31
0.0
  0
TEXT
  8
1
  6
CONTINUOUS
 62
     7
  5
C7B
 10
-7125.0
 20
-4929.008006
 30
0.0
 40
13.030729
  1
仕様および外観は予告なく変更されることがありますので、ご了承ください。
 41
0.5859
  7
ＭＳ_Ｐゴシック
 72
     5
 11
-6805.747135
 21
-4929.008006
 31
0.0
  0
TEXT
  8
2
  6
CONTINUOUS
 62
     7
  5
C7C
 10
-7147.528
 20
-5014.181429
 30
0.0
 40
28.800353
  1
AMP (AudioMechanic Professional)
 41
0.7
  7
ＭＳ_Ｐゴシック
 72
     5
 11
-6502.400083
 21
-5014.181429
 31
0.0
  0
TEXT
  8
2
  6
CONTINUOUS
 62
     7
  5
C7D
 10
-6084.45288
 20
-5014.181429
 30
0.0
 40
28.800353
  1
エイ・エム・ピー
 41
0.5859
  7
ＭＳ_Ｐゴシック
 72
     5
 11
-5923.170901
 21
-5014.181429
 31
0.0
  0
TEXT
  8
1
  6
CONTINUOUS
 62
     7
  5
C7E
 10
-6085.0
 20
-4843.864886
 30
0.0
 40
19.546094
  1
BLU-CON
 41
0.7
  7
ＭＳ_Ｐゴシック
 72
     5
 11
-5989.224141
 21
-4843.864886
 31
0.0
  0
TEXT
  8
1
  6
CONTINUOUS
 62
    16
  5
C7F
 10
-7135.0
 20
-2951.765846
 30
0.0
 40
19.546094
  1
仕様
 41
0.5859
  7
ＭＳ_Ｐゴシック
 72
     5
 11
-7107.635469
 21
-2951.765846
 31
0.0
  0
TEXT
  8
1
  6
CONTINUOUS
 62
    16
  5
C80
 10
-7137.8
 20
-2985.592664
 30
0.0
 40
13.030729
  1
制御Ｉｎｐｕｔ
 41
0.5859
  7
ＭＳ_Ｐゴシック
 72
     5
 11
-7073.949427
 21
-2985.592664
 31
0.0
  0
TEXT
  8
1
  6
CONTINUOUS
 62
    16
  5
C81
 10
-6777.0
 20
-2985.592664
 30
0.0
 40
13.030729
  1
標準仕様はＥａｔｈｅｒＮｅｔ　*ＯｐｔｉｏｎによりＳｅｒｉａｌコントロールに対応
 41
0.5859
  7
ＭＳ_Ｐゴシック
 72
     5
 11
-6412.139583
 21
-2985.592664
 31
0.0
  0
TEXT
  8
1
  6
CONTINUOUS
 62
    16
  5
C82
 10
-7137.8
 20
-3015.592664
 30
0.0
 40
13.030729
  1
ＢＬＵ　Ｏｕｔｐｕｔ
 41
0.5859
  7
ＭＳ_Ｐゴシック
 72
     5
 11
-7046.584896
 21
-3015.592664
 31
0.0
  0
TEXT
  8
1
  6
CONTINUOUS
 62
    16
  5
C83
 10
-6777.0
 20
-3015.592664
 30
0.0
 40
13.030729
  1
Ｓｅｒｉａｌコントロール（ＢＬＵフォーマット）
 41
0.5859
  7
ＭＳ_Ｐゴシック
 72
     5
 11
-6567.20526
 21
-3015.592664
 31
0.0
  0
TEXT
  8
1
  6
CONTINUOUS
 62
    16
  5
C84
 10
-6777.0
 20
-3045.592664
 30
0.0
 40
13.030729
  1
フォーマットセレクト、Ｃｃｈ-ＥＭＧ用ＧＰＩＯ接続用Ｄ-Ｓｕｂ25Ｐｉｎコネクター
 41
0.5859
  7
ＭＳ_Ｐゴシック
 72
     5
 11
-6403.018073
 21
-3045.592664
 31
0.0
  0
TEXT
  8
1
  6
CONTINUOUS
 62
    16
  5
C85
 10
-7137.8
 20
-3075.592664
 30
0.0
 40
13.030729
  1
電源
 41
0.5859
  7
ＭＳ_Ｐゴシック
 72
     5
 11
-7119.556979
 21
-3075.592664
 31
0.0
  0
TEXT
  8
1
  6
CONTINUOUS
 62
    16
  5
C86
 10
-6777.0
 20
-3075.592664
 30
0.0
 40
13.030729
  1
24V-DC、外部電源（ＤＣ24Ｖ-２Ａアダプタ 付属）
 41
0.5859
  7
ＭＳ_Ｐゴシック
 72
     5
 11
-6530.719219
 21
-3075.592664
 31
0.0
  0
TEXT
  8
1
  6
CONTINUOUS
 62
    16
  5
C87
 10
-7137.8
 20
-3165.592664
 30
0.0
 40
13.030729
  1
質量
 41
0.5859
  7
ＭＳ_Ｐゴシック
 72
     5
 11
-7119.556979
 21
-3165.592664
 31
0.0
  0
TEXT
  8
1
  6
CONTINUOUS
 62
    16
  5
C88
 10
-7137.8
 20
-3135.592664
 30
0.0
 40
13.030729
  1
寸法(W×H×D、マウント面から)
 41
0.5859
  7
ＭＳ_Ｐゴシック
 72
     5
 11
-6982.734323
 21
-3135.592664
 31
0.0
  0
TEXT
  8
1
  6
CONTINUOUS
 62
    16
  5
C89
 10
-6777.0
 20
-3135.592664
 30
0.0
 40
13.030729
  1
482.6×44×320mm(突起部含まず)
 41
0.5859
  7
ＭＳ_Ｐゴシック
 72
     5
 11
-6576.326771
 21
-3135.592664
 31
0.0
  0
TEXT
  8
1
  6
CONTINUOUS
 62
    16
  5
C8A
 10
-6777.0
 20
-3165.592664
 30
0.0
 40
13.030729
  1
約3.5kg
 41
0.5859
  7
ＭＳ_Ｐゴシック
 72
     5
 11
-6722.270937
 21
-3165.592664
 31
0.0
  0
TEXT
  8
1
  6
CONTINUOUS
 62
    16
  5
C8B
 10
-6777.0
 20
-3105.592664
 30
0.0
 40
13.030729
  1
40W
 41
0.7
  7
ＭＳ_Ｐゴシック
 72
     5
 11
-6749.635469
 21
-3105.592664
 31
0.0
  0
TEXT
  8
1
  6
CONTINUOUS
 62
    16
  5
C8C
 10
-7137.8
 20
-3105.592664
 30
0.0
 40
13.030729
  1
消費電力
 41
0.5859
  7
ＭＳ_Ｐゴシック
 72
     5
 11
-7101.313958
 21
-3105.592664
 31
0.0
  0
TEXT
  8
1
  6
CONTINUOUS
 62
    16
  5
C8D
 10
-6898.493942
 20
-3932.390545
 30
0.0
 40
17.5
  1
482.6
  7
ＭＳ_Ｐゴシック
 72
     5
 11
-6810.993942
 21
-3932.390545
 31
0.0
  0
TEXT
  8
1
  6
CONTINUOUS
 62
    16
  5
C8E
 10
-6446.027027
 20
-3931.709597
 30
0.0
 40
17.5
  1
320
  7
ＭＳ_Ｐゴシック
 72
     5
 11
-6393.527027
 21
-3931.709597
 31
0.0
  0
TEXT
  8
1
  6
CONTINUOUS
 62
    16
  5
C8F
 10
-7154.859888
 20
-4073.890546
 30
0.0
 40
17.5
  1
44
 50
90.0
  7
ＭＳ_Ｐゴシック
 72
     5
 11
-7154.859888
 21
-4038.890546
 31
0.0
  0
ENDSEC
  0
EOF
